  0
SECTION
  2
HEADER
  9
$ACADVER
  1
AC1015
  9
$ACADMAINTVER
 70
     6
  9
$DWGCODEPAGE
  3
ANSI_1252
  9
$INSBASE
 10
0.0
 20
0.0
 30
0.0
  9
$EXTMIN
 10
-2.5274308296
 20
-0.3593734559
 30
0.0
  9
$EXTMAX
 10
0.7269691823
 20
0.8677729213
 30
0.0
  9
$LIMMIN
 10
0.0
 20
0.0
  9
$LIMMAX
 10
12.0
 20
9.0
  9
$ORTHOMODE
 70
     0
  9
$REGENMODE
 70
     1
  9
$FILLMODE
 70
     1
  9
$QTEXTMODE
 70
     0
  9
$MIRRTEXT
 70
     1
  9
$LTSCALE
 40
1.0
  9
$ATTMODE
 70
     1
  9
$TEXTSIZE
 40
0.1377952756
  9
$TRACEWID
 40
0.05
  9
$TEXTSTYLE
  7
Standard
  9
$CLAYER
  8
0
  9
$CELTYPE
  6
ByLayer
  9
$CECOLOR
 62
   256
  9
$CELTSCALE
 40
1.0
  9
$DISPSILH
 70
     0
  9
$DIMSCALE
 40
1.0
  9
$DIMASZ
 40
0.156
  9
$DIMEXO
 40
0.05
  9
$DIMDLI
 40
0.38
  9
$DIMRND
 40
0.0
  9
$DIMDLE
 40
0.0
  9
$DIMEXE
 40
0.125
  9
$DIMTP
 40
0.0
  9
$DIMTM
 40
0.0
  9
$DIMTXT
 40
0.1377952756
  9
$DIMCEN
 40
0.09
  9
$DIMTSZ
 40
0.0
  9
$DIMTOL
 70
     0
  9
$DIMLIM
 70
     0
  9
$DIMTIH
 70
     1
  9
$DIMTOH
 70
     1
  9
$DIMSE1
 70
     0
  9
$DIMSE2
 70
     0
  9
$DIMTAD
 70
     0
  9
$DIMZIN
 70
     0
  9
$DIMBLK
  1

  9
$DIMASO
 70
     1
  9
$DIMSHO
 70
     1
  9
$DIMPOST
  1

  9
$DIMAPOST
  1

  9
$DIMALT
 70
     0
  9
$DIMALTD
 70
     2
  9
$DIMALTF
 40
25.4
  9
$DIMLFAC
 40
1.0
  9
$DIMTOFL
 70
     0
  9
$DIMTVP
 40
0.0
  9
$DIMTIX
 70
     0
  9
$DIMSOXD
 70
     0
  9
$DIMSAH
 70
     0
  9
$DIMBLK1
  1

  9
$DIMBLK2
  1

  9
$DIMSTYLE
  2
Standard
  9
$DIMCLRD
 70
     0
  9
$DIMCLRE
 70
     0
  9
$DIMCLRT
 70
     0
  9
$DIMTFAC
 40
1.0
  9
$DIMGAP
 40
0.06
  9
$DIMJUST
 70
     0
  9
$DIMSD1
 70
     0
  9
$DIMSD2
 70
     0
  9
$DIMTOLJ
 70
     1
  9
$DIMTZIN
 70
     0
  9
$DIMALTZ
 70
     0
  9
$DIMALTTZ
 70
     0
  9
$DIMUPT
 70
     0
  9
$DIMDEC
 70
     4
  9
$DIMTDEC
 70
     4
  9
$DIMALTU
 70
     2
  9
$DIMALTTD
 70
     2
  9
$DIMTXSTY
  7
Standard
  9
$DIMAUNIT
 70
     0
  9
$DIMADEC
 70
     2
  9
$DIMALTRND
 40
0.0
  9
$DIMAZIN
 70
     0
  9
$DIMDSEP
 70
    46
  9
$DIMATFIT
 70
     3
  9
$DIMFRAC
 70
     0
  9
$DIMLDRBLK
  1

  9
$DIMLUNIT
 70
     2
  9
$DIMLWD
 70
    -2
  9
$DIMLWE
 70
    -2
  9
$DIMTMOVE
 70
     0
  9
$LUNITS
 70
     2
  9
$LUPREC
 70
     4
  9
$SKETCHINC
 40
0.1
  9
$FILLETRAD
 40
0.5
  9
$AUNITS
 70
     0
  9
$AUPREC
 70
     2
  9
$MENU
  1
.
  9
$ELEVATION
 40
0.0
  9
$PELEVATION
 40
0.0
  9
$THICKNESS
 40
0.0
  9
$LIMCHECK
 70
     0
  9
$CHAMFERA
 40
0.0
  9
$CHAMFERB
 40
0.0
  9
$CHAMFERC
 40
0.0
  9
$CHAMFERD
 40
0.0
  9
$SKPOLY
 70
     0
  9
$TDCREATE
 40
2458688.465927408
  9
$TDUCREATE
 40
2458688.757594074
  9
$TDUPDATE
 40
2458688.46595353
  9
$TDUUPDATE
 40
2458688.757620197
  9
$TDINDWG
 40
0.0000000116
  9
$TDUSRTIMER
 40
0.0000000116
  9
$USRTIMER
 70
     1
  9
$ANGBASE
 50
0.0
  9
$ANGDIR
 70
     0
  9
$PDMODE
 70
     0
  9
$PDSIZE
 40
-1.0
  9
$PLINEWID
 40
0.0
  9
$SPLFRAME
 70
     0
  9
$SPLINETYPE
 70
     6
  9
$SPLINESEGS
 70
     8
  9
$HANDSEED
  5
151
  9
$SURFTAB1
 70
     6
  9
$SURFTAB2
 70
     6
  9
$SURFTYPE
 70
     6
  9
$SURFU
 70
     6
  9
$SURFV
 70
     6
  9
$UCSBASE
  2

  9
$UCSNAME
  2

  9
$UCSORG
 10
0.0
 20
0.0
 30
0.0
  9
$UCSXDIR
 10
1.0
 20
0.0
 30
0.0
  9
$UCSYDIR
 10
0.0
 20
1.0
 30
0.0
  9
$UCSORTHOREF
  2

  9
$UCSORTHOVIEW
 70
     0
  9
$UCSORGTOP
 10
0.0
 20
0.0
 30
0.0
  9
$UCSORGBOTTOM
 10
0.0
 20
0.0
 30
0.0
  9
$UCSORGLEFT
 10
0.0
 20
0.0
 30
0.0
  9
$UCSORGRIGHT
 10
0.0
 20
0.0
 30
0.0
  9
$UCSORGFRONT
 10
0.0
 20
0.0
 30
0.0
  9
$UCSORGBACK
 10
0.0
 20
0.0
 30
0.0
  9
$PUCSBASE
  2

  9
$PUCSNAME
  2

  9
$PUCSORG
 10
0.0
 20
0.0
 30
0.0
  9
$PUCSXDIR
 10
1.0
 20
0.0
 30
0.0
  9
$PUCSYDIR
 10
0.0
 20
1.0
 30
0.0
  9
$PUCSORTHOREF
  2

  9
$PUCSORTHOVIEW
 70
     0
  9
$PUCSORGTOP
 10
0.0
 20
0.0
 30
0.0
  9
$PUCSORGBOTTOM
 10
0.0
 20
0.0
 30
0.0
  9
$PUCSORGLEFT
 10
0.0
 20
0.0
 30
0.0
  9
$PUCSORGRIGHT
 10
0.0
 20
0.0
 30
0.0
  9
$PUCSORGFRONT
 10
0.0
 20
0.0
 30
0.0
  9
$PUCSORGBACK
 10
0.0
 20
0.0
 30
0.0
  9
$USERI1
 70
     0
  9
$USERI2
 70
     0
  9
$USERI3
 70
     0
  9
$USERI4
 70
     0
  9
$USERI5
 70
     0
  9
$USERR1
 40
0.0
  9
$USERR2
 40
0.0
  9
$USERR3
 40
0.0
  9
$USERR4
 40
0.0
  9
$USERR5
 40
0.0
  9
$WORLDVIEW
 70
     1
  9
$SHADEDGE
 70
     3
  9
$SHADEDIF
 70
    70
  9
$TILEMODE
 70
     1
  9
$MAXACTVP
 70
    64
  9
$PINSBASE
 10
0.0
 20
0.0
 30
0.0
  9
$PLIMCHECK
 70
     0
  9
$PEXTMIN
 10
1.0000000000E+20
 20
1.0000000000E+20
 30
1.0000000000E+20
  9
$PEXTMAX
 10
-1.0000000000E+20
 20
-1.0000000000E+20
 30
-1.0000000000E+20
  9
$PLIMMIN
 10
0.0
 20
0.0
  9
$PLIMMAX
 10
12.0
 20
9.0
  9
$UNITMODE
 70
     0
  9
$VISRETAIN
 70
     1
  9
$PLINEGEN
 70
     0
  9
$PSLTSCALE
 70
     1
  9
$TREEDEPTH
 70
  3020
  9
$CMLSTYLE
  2
Standard
  9
$CMLJUST
 70
     0
  9
$CMLSCALE
 40
1.0
  9
$PROXYGRAPHICS
 70
     1
  9
$MEASUREMENT
 70
     0
  9
$CELWEIGHT
370
    -1
  9
$ENDCAPS
280
     0
  9
$JOINSTYLE
280
     0
  9
$LWDISPLAY
290
     1
  9
$INSUNITS
 70
     1
  9
$HYPERLINKBASE
  1

  9
$STYLESHEET
  1

  9
$XEDIT
290
     1
  9
$CEPSNTYPE
380
     0
  9
$PSTYLEMODE
290
     1
  9
$FINGERPRINTGUID
  2
{E99EE725-C1CC-40F1-9A7B-81E07337FB99}
  9
$VERSIONGUID
  2
{FAEB1C32-E019-11D5-929B-00C0DF256EC4}
  9
$EXTNAMES
290
     1
  9
$PSVPSCALE
 40
0.0
  9
$OLESTARTUP
290
     0
  0
ENDSEC
  0
SECTION
  2
CLASSES
  0
CLASS
  1
ACDBDICTIONARYWDFLT
  2
AcDbDictionaryWithDefault
  3
ObjectDBX Classes
 90
        0
280
     0
281
     0
  0
CLASS
  1
VISUALSTYLE
  2
AcDbVisualStyle
  3
ObjectDBX Classes
 90
     4095
280
     0
281
     0
  0
CLASS
  1
MATERIAL
  2
AcDbMaterial
  3
ObjectDBX Classes
 90
     1153
280
     0
281
     0
  0
CLASS
  1
SCALE
  2
AcDbScale
  3
ObjectDBX Classes
 90
     1153
280
     0
281
     0
  0
CLASS
  1
TABLESTYLE
  2
AcDbTableStyle
  3
ObjectDBX Classes
 90
     4095
280
     0
281
     0
  0
CLASS
  1
MLEADERSTYLE
  2
AcDbMLeaderStyle
  3
ACDB_MLEADERSTYLE_CLASS
 90
     4095
280
     0
281
     0
  0
CLASS
  1
SUN
  2
AcDbSun
  3
SCENEOE
 90
     1153
280
     0
281
     0
  0
CLASS
  1
ACDBPLACEHOLDER
  2
AcDbPlaceHolder
  3
ObjectDBX Classes
 90
        0
280
     0
281
     0
  0
CLASS
  1
LAYOUT
  2
AcDbLayout
  3
ObjectDBX Classes
 90
        0
280
     0
281
     0
  0
ENDSEC
  0
SECTION
  2
TABLES
  0
TABLE
  2
VPORT
  5
8
330
0
100
AcDbSymbolTable
 70
     1
  0
VPORT
  5
29
330
8
100
AcDbSymbolTableRecord
100
AcDbViewportTableRecord
  2
*Active
 70
     0
 10
0.0
 20
0.0
 11
1.0
 21
1.0
 12
-0.9002308237
 22
0.2541997327
 13
0.0
 23
0.0
 14
0.5
 24
0.5
 15
0.5
 25
0.5
 16
0.0
 26
0.0
 36
1.0
 17
0.0
 27
0.0
 37
0.0
 40
1.2516893048
 41
2.6520063722
 42
50.0
 43
0.0
 44
0.0
 50
0.0
 51
0.0
 71
     0
 72
   100
 73
     1
 74
     3
 75
     0
 76
     0
 77
     0
 78
     0
281
     0
 65
     1
110
0.0
120
0.0
130
0.0
111
1.0
121
0.0
131
0.0
112
0.0
122
1.0
132
0.0
 79
     0
146
0.0
  0
ENDTAB
  0
TABLE
  2
LTYPE
  5
5
330
0
100
AcDbSymbolTable
 70
     6
  0
LTYPE
  5
14
330
5
100
AcDbSymbolTableRecord
100
AcDbLinetypeTableRecord
  2
ByBlock
 70
     0
  3

 72
    65
 73
     0
 40
0.0
  0
LTYPE
  5
15
330
5
100
AcDbSymbolTableRecord
100
AcDbLinetypeTableRecord
  2
ByLayer
 70
     0
  3

 72
    65
 73
     0
 40
0.0
  0
LTYPE
  5
16
330
5
100
AcDbSymbolTableRecord
100
AcDbLinetypeTableRecord
  2
Continuous
 70
     0
  3
Solid line
 72
    65
 73
     0
 40
0.0
  0
LTYPE
  5
6E
330
5
100
AcDbSymbolTableRecord
100
AcDbLinetypeTableRecord
  2
HIDDEN
 70
     0
  3
Hidden __ __ __ __ __ __ __ __ __ __ __ __ __ __
 72
    65
 73
     2
 40
0.075
 49
0.05
 74
     0
 49
-0.025
 74
     0
  0
LTYPE
  5
6F
330
5
100
AcDbSymbolTableRecord
100
AcDbLinetypeTableRecord
  2
PHANTOM
 70
     0
  3
Phantom ______  __  __  ______  __  __  ______
 72
    65
 73
     6
 40
0.5
 49
0.25
 74
     0
 49
-0.05
 74
     0
 49
0.05
 74
     0
 49
-0.05
 74
     0
 49
0.05
 74
     0
 49
-0.05
 74
     0
  0
LTYPE
  5
70
330
5
100
AcDbSymbolTableRecord
100
AcDbLinetypeTableRecord
  2
CENTER
 70
     0
  3
Center ____ _ ____ _ ____ _ ____ _ ____ _ ____
 72
    65
 73
     4
 40
0.4
 49
0.25
 74
     0
 49
-0.05
 74
     0
 49
0.05
 74
     0
 49
-0.05
 74
     0
  0
LTYPE
  5
71
330
5
100
AcDbSymbolTableRecord
100
AcDbLinetypeTableRecord
  2
CENTERX2
 70
     0
  3
Center (2x) ________  __  ________  __  _____
 72
    65
 73
     4
 40
0.8
 49
0.5
 74
     0
 49
-0.1
 74
     0
 49
0.1
 74
     0
 49
-0.1
 74
     0
  0
LTYPE
  5
72
330
5
100
AcDbSymbolTableRecord
100
AcDbLinetypeTableRecord
  2
DOT2
 70
     0
  3
Dot (.5x) ........................................
 72
    65
 73
     2
 40
0.025
 49
0.0
 74
     0
 49
-0.025
 74
     0
  0
ENDTAB
  0
TABLE
  2
LAYER
  5
2
330
0
100
AcDbSymbolTable
 70
     1
  0
LAYER
  5
10
330
2
100
AcDbSymbolTableRecord
100
AcDbLayerTableRecord
  2
0
 70
     0
 62
     7
  6
Continuous
370
    -3
390
F
  0
ENDTAB
  0
TABLE
  2
STYLE
  5
3
330
0
100
AcDbSymbolTable
 70
     1
  0
STYLE
  5
11
330
3
100
AcDbSymbolTableRecord
100
AcDbTextStyleTableRecord
  2
Standard
 70
     0
 40
0.0
 41
1.0
 50
0.0
 71
     0
 42
0.1377952756
  3
txt
  4

  0
ENDTAB
  0
TABLE
  2
VIEW
  5
6
330
0
100
AcDbSymbolTable
 70
     0
  0
ENDTAB
  0
TABLE
  2
UCS
  5
7
330
0
100
AcDbSymbolTable
 70
     0
  0
ENDTAB
  0
TABLE
  2
APPID
  5
9
330
0
100
AcDbSymbolTable
 70
     1
  0
APPID
  5
12
330
9
100
AcDbSymbolTableRecord
100
AcDbRegAppTableRecord
  2
ACAD
 70
     0
  0
ENDTAB
  0
TABLE
  2
DIMSTYLE
  5
A
330
0
100
AcDbSymbolTable
 70
     1
100
AcDbDimStyleTable
  0
DIMSTYLE
105
27
330
A
100
AcDbSymbolTableRecord
100
AcDbDimStyleTableRecord
  2
Standard
 70
     0
178
     0
340
11
  0
ENDTAB
  0
TABLE
  2
BLOCK_RECORD
  5
1
330
0
100
AcDbSymbolTable
 70
     1
  0
BLOCK_RECORD
  5
1F
330
1
100
AcDbSymbolTableRecord
100
AcDbBlockTableRecord
  2
*Model_Space
340
22
  0
BLOCK_RECORD
  5
1B
330
1
100
AcDbSymbolTableRecord
100
AcDbBlockTableRecord
  2
*Paper_Space
340
1E
  0
BLOCK_RECORD
  5
23
330
1
100
AcDbSymbolTableRecord
100
AcDbBlockTableRecord
  2
*Paper_Space0
340
26
  0
ENDTAB
  0
ENDSEC
  0
SECTION
  2
BLOCKS
  0
BLOCK
  5
20
330
1F
100
AcDbEntity
  8
0
100
AcDbBlockBegin
  2
*Model_Space
 70
     0
 10
0.0
 20
0.0
 30
0.0
  3
*Model_Space
  1

  0
ENDBLK
  5
21
330
1F
100
AcDbEntity
  8
0
100
AcDbBlockEnd
  0
BLOCK
  5
1C
330
1B
100
AcDbEntity
 67
     1
  8
0
100
AcDbBlockBegin
  2
*Paper_Space
 70
     0
 10
0.0
 20
0.0
 30
0.0
  3
*Paper_Space
  1

  0
ENDBLK
  5
1D
330
1B
100
AcDbEntity
 67
     1
  8
0
100
AcDbBlockEnd
  0
BLOCK
  5
24
330
23
100
AcDbEntity
  8
0
100
AcDbBlockBegin
  2
*Paper_Space0
 70
     0
 10
0.0
 20
0.0
 30
0.0
  3
*Paper_Space0
  1

  0
ENDBLK
  5
25
330
23
100
AcDbEntity
  8
0
100
AcDbBlockEnd
  0
ENDSEC
  0
SECTION
  2
ENTITIES
  0
LWPOLYLINE
  5
B3
330
1F
100
AcDbEntity
  8
0
  6
Continuous
 62
     7
370
    25
100
AcDbPolyline
 90
       45
 70
   128
 43
0.0
 10
0.7240947544
 20
-0.0676462413
 10
0.7240270445
 20
-0.066594865
 10
0.7222778982
 20
-0.0497381721
 10
0.7193880018
 20
-0.0344821008
 10
0.7153950295
 20
-0.0210255374
 10
0.710351036
 20
-0.0095439088
 10
0.7043217772
 20
-0.0001868955
 10
0.6973858539
 20
0.0069235194
 10
0.6896336864
 20
0.0116946409
 10
0.6811663361
 20
0.01406427
 10
0.6720941878
 20
0.0140015151
 10
0.6625355108
 20
0.0115071943
 10
0.6526149172
 20
0.0066138247
 10
0.642461737
 20
-0.0006148009
 10
0.6322083325
 20
-0.0100844465
 10
0.6219883725
 20
-0.0216716607
 10
0.6119350897
 20
-0.0352253865
 10
0.6021795441
 20
-0.0505689302
 10
0.5928489142
 20
-0.0675022655
 10
0.584064839
 20
-0.0858046402
 10
0.5759418323
 20
-0.1052374551
 10
0.5685857899
 20
-0.1255473736
 10
0.5620926092
 20
-0.1464696248
 10
0.5565469386
 20
-0.1677314553
 10
0.5520210745
 20
-0.1890556846
 10
0.5485740184
 20
-0.2101643187
 10
0.546250708
 20
-0.2307821743
 10
0.5450814311
 20
-0.2506404661
 10
0.5450814311
 20
-0.269480311
 10
0.546250708
 20
-0.2870561026
 10
0.5485740184
 20
-0.3031387138
 10
0.5520210745
 20
-0.317518483
 10
0.5565469386
 20
-0.3300079481
 10
0.5620926092
 20
-0.3404442896
 10
0.5685857899
 20
-0.348691454
 10
0.5759418323
 20
-0.3546419268
 10
0.584064839
 20
-0.3582181345
 10
0.5928489142
 20
-0.3593734559
 10
0.6021795441
 20
-0.3580928294
 10
0.6119350897
 20
-0.3543929501
 10
0.6219883725
 20
-0.3483220515
 10
0.6322083325
 20
-0.3399592771
 10
0.642461737
 20
-0.3294136484
 10
0.6526149172
 20
-0.3168226438
 10
0.6587243643
 20
-0.308174365
  0
LWPOLYLINE
  5
B4
330
1F
100
AcDbEntity
  8
0
  6
Continuous
 62
     7
370
    25
100
AcDbPolyline
 90
       27
 70
   128
 43
0.0
 10
0.6951837792
 20
-0.0315581801
 10
0.6920957099
 20
-0.0309298891
 10
0.6840434789
 20
-0.0310735328
 10
0.6755201646
 20
-0.0336315297
 10
0.6666657196
 20
-0.0385618776
 10
0.6576255337
 20
-0.0457836204
 10
0.6485480465
 20
-0.0551781772
 10
0.6395823099
 20
-0.0665912896
 10
0.6308755413
 20
-0.0798355547
 10
0.6225707055
 20
-0.094693502
 10
0.6148041677
 20
-0.1109211644
 10
0.6077034541
 20
-0.1282520842
 10
0.6013851584
 20
-0.1464016881
 10
0.5959530267
 20
-0.1650719601
 10
0.5914962546
 20
-0.1839563348
 10
0.588088022
 20
-0.2027447315
 10
0.5857842922
 20
-0.221128645
 10
0.5846228921
 20
-0.2388062121
 10
0.5846228921
 20
-0.2554871676
 10
0.5857842922
 20
-0.2708976107
 10
0.588088022
 20
-0.2847845023
 10
0.5914962546
 20
-0.29691982
 10
0.5959530267
 20
-0.3071043023
 10
0.6013851584
 20
-0.3151707203
 10
0.6077034541
 20
-0.3209866235
 10
0.6148041677
 20
-0.324456515
 10
0.6155238772
 20
-0.3246640759
  0
LWPOLYLINE
  5
B5
330
1F
100
AcDbEntity
  8
0
  6
Continuous
 62
     7
370
    25
100
AcDbPolyline
 90
       30
 70
   128
 43
0.0
 10
0.6799533163
 20
0.0146859837
 10
0.6758598274
 20
0.0155064654
 10
0.6667876791
 20
0.0154437105
 10
0.6572290021
 20
0.0129493896
 10
0.6473084085
 20
0.0080560201
 10
0.6371552283
 20
0.0008273944
 10
0.6269018238
 20
-0.0086422511
 10
0.6166818637
 20
-0.0202294653
 10
0.606628581
 20
-0.0337831911
 10
0.5968730354
 20
-0.0491267349
 10
0.5875424055
 20
-0.0660600701
 10
0.5787583302
 20
-0.0843624449
 10
0.5706353235
 20
-0.1037952597
 10
0.5632792812
 20
-0.1241051782
 10
0.5567861005
 20
-0.1450274295
 10
0.5512404299
 20
-0.16628926
 10
0.5467145658
 20
-0.1876134893
 10
0.5432675097
 20
-0.2087221234
 10
0.5409441992
 20
-0.229339979
 10
0.5397749224
 20
-0.2491982708
 10
0.5397749224
 20
-0.2680381156
 10
0.5409441992
 20
-0.2856139073
 10
0.5432675097
 20
-0.3016965184
 10
0.5467145658
 20
-0.3160762877
 10
0.5512404299
 20
-0.3285657527
 10
0.5567861005
 20
-0.3390020942
 10
0.5632792812
 20
-0.3472492586
 10
0.5706353235
 20
-0.3531997314
 10
0.5787583302
 20
-0.3567759392
 10
0.5789812175
 20
-0.3568374143
  0
LWPOLYLINE
  5
B7
330
1F
100
AcDbEntity
  8
0
  6
Continuous
 62
     7
370
    25
100
AcDbPolyline
 90
       36
 70
   128
 43
0.0
 10
0.6571632461
 20
0.0129243997
 10
0.6565094245
 20
0.01381021
 10
0.6497359204
 20
0.0211202335
 10
0.6421563658
 20
0.0261630749
 10
0.633866078
 20
0.0288753177
 10
0.6249693122
 20
0.0292228538
 10
0.6155779504
 20
0.0272013128
 10
0.6058100944
 20
0.0228361167
 10
0.5957885807
 20
0.0161821604
 10
0.5856394355
 20
0.0073231213
 10
0.5754902904
 20
-0.0036295931
 10
0.5654687767
 20
-0.0165382461
 10
0.5557009206
 20
-0.0312405038
 10
0.5463095588
 20
-0.0475514769
 10
0.537412793
 20
-0.0652660453
 10
0.5291225053
 20
-0.0841614382
 10
0.5215429507
 20
-0.1040000349
 10
0.5147694466
 20
-0.1245323536
 10
0.5088871737
 20
-0.1455001885
 10
0.5039701051
 20
-0.166639857
 10
0.5000800756
 20
-0.1876855153
 10
0.4972660048
 20
-0.2083725021
 10
0.4955632811
 20
-0.2284406667
 10
0.4949933174
 20
-0.2476376401
 10
0.4955632811
 20
-0.2657220092
 10
0.4972660048
 20
-0.2824663528
 10
0.5000800756
 20
-0.2976601008
 10
0.5039701051
 20
-0.3111121832
 10
0.5088871737
 20
-0.3226534321
 10
0.5147694466
 20
-0.3321387097
 10
0.5215429507
 20
-0.3394487331
 10
0.5291225053
 20
-0.3444915746
 10
0.537412793
 20
-0.3472038174
 10
0.5463095588
 20
-0.3475513535
 10
0.5557009206
 20
-0.3455298125
 10
0.5602179479
 20
-0.3437825229
  0
LWPOLYLINE
  5
B9
330
1F
100
AcDbEntity
  8
0
  6
Continuous
 62
     7
370
    25
100
AcDbPolyline
 90
       30
 70
   128
 43
0.0
 10
0.6312726235
 20
0.0297088243
 10
0.6285595693
 20
0.0303175131
 10
0.6196628035
 20
0.0306650492
 10
0.6102714417
 20
0.0286435082
 10
0.6005035857
 20
0.0242783121
 10
0.5904820719
 20
0.0176243558
 10
0.5803329268
 20
0.0087653167
 10
0.5701837817
 20
-0.0021873978
 10
0.5601622679
 20
-0.0150960507
 10
0.5503944119
 20
-0.0297983085
 10
0.5410030501
 20
-0.0461092815
 10
0.5321062843
 20
-0.06382385
 10
0.5238159965
 20
-0.0827192428
 10
0.516236442
 20
-0.1025578395
 10
0.5094629378
 20
-0.1230901583
 10
0.503580665
 20
-0.1440579932
 10
0.4986635963
 20
-0.1651976616
 10
0.4947735669
 20
-0.1862433199
 10
0.4919594961
 20
-0.2069303068
 10
0.4902567724
 20
-0.2269984713
 10
0.4896868086
 20
-0.2461954447
 10
0.4902567724
 20
-0.2642798139
 10
0.4919594961
 20
-0.2810241574
 10
0.4947735669
 20
-0.2962179054
 10
0.4986635963
 20
-0.3096699878
 10
0.503580665
 20
-0.3212112367
 10
0.5094629378
 20
-0.3306965144
 10
0.516236442
 20
-0.3380065378
 10
0.5238159965
 20
-0.3430493792
 10
0.5293932301
 20
-0.3451529332
  0
LWPOLYLINE
  5
BB
330
1F
100
AcDbEntity
  8
0
  6
Continuous
 62
     7
370
    25
100
AcDbPolyline
 90
       36
 70
   128
 43
0.0
 10
0.6085133839
 20
0.028020484
 10
0.6080062224
 20
0.0287043079
 10
0.6011723963
 20
0.0360794313
 10
0.5935253414
 20
0.0411671821
 10
0.5851612239
 20
0.043903579
 10
0.5761852273
 20
0.0442542101
 10
0.56671023
 20
0.0422146661
 10
0.5568553856
 20
0.0378105955
 10
0.5467446245
 20
0.0310973819
 10
0.5365050954
 20
0.0221594479
 10
0.5262655663
 20
0.0111091932
 10
0.5161548052
 20
-0.0019144187
 10
0.5062999609
 20
-0.0167476085
 10
0.4968249636
 20
-0.0332038402
 10
0.487848967
 20
-0.051076167
 10
0.4794848494
 20
-0.0701398342
 10
0.4718377945
 20
-0.090155105
 10
0.4650039685
 20
-0.1108702759
 10
0.4590693106
 20
-0.1320248414
 10
0.4541084526
 20
-0.1533527707
 10
0.4501837802
 20
-0.1745858527
 10
0.4473446485
 20
-0.1954570691
 10
0.4456267611
 20
-0.2157039522
 10
0.4450517215
 20
-0.2350718857
 10
0.4456267611
 20
-0.2533173065
 10
0.4473446485
 20
-0.2702107681
 10
0.4501837802
 20
-0.2855398252
 10
0.4541084526
 20
-0.2991117061
 10
0.4590693106
 20
-0.3107557365
 10
0.4650039685
 20
-0.3203254859
 10
0.4718377945
 20
-0.3277006093
 10
0.4794848494
 20
-0.3327883601
 10
0.487848967
 20
-0.335524757
 10
0.4968249636
 20
-0.3358753882
 10
0.5062999609
 20
-0.3338358442
 10
0.5106194761
 20
-0.3321768152
  0
LWPOLYLINE
  5
BD
330
1F
100
AcDbEntity
  8
0
  6
Continuous
 62
     7
370
    25
100
AcDbPolyline
 90
       30
 70
   128
 43
0.0
 10
0.5825919307
 20
0.0447316648
 10
0.5798547152
 20
0.0453457743
 10
0.5708787186
 20
0.0456964055
 10
0.5614037213
 20
0.0436568615
 10
0.5515488769
 20
0.0392527908
 10
0.5414381158
 20
0.0325395772
 10
0.5311985867
 20
0.0236016433
 10
0.5209590576
 20
0.0125513886
 10
0.5108482965
 20
-0.0004722234
 10
0.5009934521
 20
-0.0153054131
 10
0.4915184549
 20
-0.0317616448
 10
0.4825424582
 20
-0.0496339717
 10
0.4741783407
 20
-0.0686976388
 10
0.4665312858
 20
-0.0887129097
 10
0.4596974598
 20
-0.1094280805
 10
0.4537628019
 20
-0.130582646
 10
0.4488019439
 20
-0.1519105754
 10
0.4448772715
 20
-0.1731436574
 10
0.4420381398
 20
-0.1940148737
 10
0.4403202524
 20
-0.2142617568
 10
0.4397452127
 20
-0.2336296903
 10
0.4403202524
 20
-0.2518751112
 10
0.4420381398
 20
-0.2687685727
 10
0.4448772715
 20
-0.2840976298
 10
0.4488019439
 20
-0.2976695107
 10
0.4537628019
 20
-0.3093135411
 10
0.4596974598
 20
-0.3188832906
 10
0.4665312858
 20
-0.3262584139
 10
0.4741783407
 20
-0.3313461648
 10
0.4798052427
 20
-0.3334684521
  0
LWPOLYLINE
  5
BE
330
1F
100
AcDbEntity
  8
0
  6
Continuous
 62
     7
370
    25
100
AcDbPolyline
 90
       50
 70
   128
 43
0.0
 10
0.5853616868
 20
-0.2475291888
 10
0.5859435823
 20
-0.2636079235
 10
0.5876797144
 20
-0.2782867501
 10
0.5905415756
 20
-0.2913246425
 10
0.5944821743
 20
-0.3025075189
 10
0.599436806
 20
-0.3116517569
 10
0.6053241158
 20
-0.3186072082
 10
0.6120474342
 20
-0.3232596645
 10
0.6194963646
 20
-0.3255327327
 10
0.6275485956
 20
-0.325389089
 10
0.6360719099
 20
-0.3228310921
 10
0.6449263548
 20
-0.3179007442
 10
0.6539665407
 20
-0.3106790014
 10
0.663044028
 20
-0.3012844446
 10
0.6720097645
 20
-0.2898713322
 10
0.6807165331
 20
-0.2766270671
 10
0.6890213689
 20
-0.2617691198
 10
0.6967879068
 20
-0.2455414574
 10
0.7038886203
 20
-0.2282105376
 10
0.7102069161
 20
-0.2100609338
 10
0.7156390477
 20
-0.1913906618
 10
0.7200958199
 20
-0.172506287
 10
0.7235040524
 20
-0.1537178903
 10
0.7258077823
 20
-0.1353339768
 10
0.7269691823
 20
-0.1176564097
 10
0.7269691823
 20
-0.1009754542
 10
0.7258077823
 20
-0.0855650111
 10
0.7235040524
 20
-0.0716781195
 10
0.7200958199
 20
-0.0595428018
 10
0.7156390477
 20
-0.0493583195
 10
0.7102069161
 20
-0.0412919016
 10
0.7038886203
 20
-0.0354759983
 10
0.6967879068
 20
-0.0320061068
 10
0.6890213689
 20
-0.0309392025
 10
0.6807165331
 20
-0.0322928039
 10
0.6720097645
 20
-0.036044685
 10
0.663044028
 20
-0.0421332399
 10
0.6539665407
 20
-0.0504584948
 10
0.6449263548
 20
-0.0608837492
 10
0.6360719099
 20
-0.0732378208
 10
0.6275485956
 20
-0.0873178559
 10
0.6194963646
 20
-0.1028926609
 10
0.6120474342
 20
-0.1197064978
 10
0.6053241158
 20
-0.1374832839
 10
0.599436806
 20
-0.1559311249
 10
0.5944821743
 20
-0.1747471077
 10
0.5905415756
 20
-0.1936222745
 10
0.5876797144
 20
-0.2122466955
 10
0.5859435823
 20
-0.2303145582
 10
0.5853616868
 20
-0.2475291888
  0
LWPOLYLINE
  5
C0
330
1F
100
AcDbEntity
  8
0
  6
Continuous
 62
     7
370
    25
100
AcDbPolyline
 90
       36
 70
   128
 43
0.0
 10
0.5598631329
 20
0.0431151375
 10
0.5595030203
 20
0.0435984057
 10
0.5526088723
 20
0.0510386291
 10
0.5448943171
 20
0.0561712893
 10
0.5364563698
 20
0.0589318403
 10
0.5274011424
 20
0.0592855664
 10
0.5178425096
 20
0.0572280194
 10
0.5079006768
 20
0.0527850742
 10
0.4977006684
 20
0.0460126033
 10
0.4873707553
 20
0.0369957745
 10
0.4770408423
 20
0.0258479796
 10
0.4668408338
 20
0.0127094087
 10
0.4568990011
 20
-0.0022547132
 10
0.4473403683
 20
-0.0188562034
 10
0.4382851409
 20
-0.0368862887
 10
0.4298471936
 20
-0.0561182302
 10
0.4221326384
 20
-0.0763101752
 10
0.4152384904
 20
-0.0972081981
 10
0.4092514475
 20
-0.1185494943
 10
0.4042468002
 20
-0.1400656845
 10
0.4002874849
 20
-0.1614861902
 10
0.3974232922
 20
-0.1825416361
 10
0.395690241
 20
-0.2029672377
 10
0.3951101256
 20
-0.2225061312
 10
0.395690241
 20
-0.2409126038
 10
0.3974232922
 20
-0.2579551834
 10
0.4002874849
 20
-0.2734195495
 10
0.4042468002
 20
-0.287111229
 10
0.4092514475
 20
-0.2988580408
 10
0.4152384904
 20
-0.3085122621
 10
0.4221326384
 20
-0.3159524855
 10
0.4298471936
 20
-0.3210851457
 10
0.4382851409
 20
-0.3238456967
 10
0.4473403683
 20
-0.3241994228
 10
0.4568990011
 20
-0.3221418759
 10
0.4610213932
 20
-0.3205696767
  0
LWPOLYLINE
  5
C2
330
1F
100
AcDbEntity
  8
0
  6
Continuous
 62
     7
370
    25
100
AcDbPolyline
 90
       30
 70
   128
 43
0.0
 10
0.5339112379
 20
0.0597545054
 10
0.531149861
 20
0.0603740356
 10
0.5220946336
 20
0.0607277618
 10
0.5125360009
 20
0.0586702148
 10
0.5025941681
 20
0.0542272696
 10
0.4923941597
 20
0.0474547986
 10
0.4820642466
 20
0.0384379698
 10
0.4717343335
 20
0.027290175
 10
0.4615343251
 20
0.014151604
 10
0.4515924924
 20
-0.0008125178
 10
0.4420338596
 20
-0.0174140081
 10
0.4329786322
 20
-0.0354440933
 10
0.4245406848
 20
-0.0546760349
 10
0.4168261297
 20
-0.0748679798
 10
0.4099319817
 20
-0.0957660027
 10
0.4039449387
 20
-0.1171072989
 10
0.3989402915
 20
-0.1386234891
 10
0.3949809761
 20
-0.1600439948
 10
0.3921167835
 20
-0.1810994407
 10
0.3903837323
 20
-0.2015250423
 10
0.3898036168
 20
-0.2210639359
 10
0.3903837323
 20
-0.2394704085
 10
0.3921167835
 20
-0.256512988
 10
0.3949809761
 20
-0.2719773542
 10
0.3989402915
 20
-0.2856690336
 10
0.4039449387
 20
-0.2974158454
 10
0.4099319817
 20
-0.3070700668
 10
0.4168261297
 20
-0.3145102901
 10
0.4245406848
 20
-0.3196429503
 10
0.4302172554
 20
-0.3217839711
  0
LWPOLYLINE
  5
C4
330
1F
100
AcDbEntity
  8
0
  6
Continuous
 62
     7
370
    25
100
AcDbPolyline
 90
       36
 70
   128
 43
0.0
 10
0.5112125041
 20
0.058208401
 10
0.5109998182
 20
0.0584925035
 10
0.5040453482
 20
0.0659978268
 10
0.4962632928
 20
0.0711753965
 10
0.4877515157
 20
0.0739601015
 10
0.4786170574
 20
0.0743169227
 10
0.4689747892
 20
0.0722413727
 10
0.4589459681
 20
0.0677595529
 10
0.4486567123
 20
0.0609278247
 10
0.4382364152
 20
0.051832101
 10
0.4278161182
 20
0.040586766
 10
0.4175268624
 20
0.027333236
 10
0.4074980413
 20
0.0122381821
 10
0.3978557731
 20
-0.0045085667
 10
0.3887213148
 20
-0.0226964104
 10
0.3802095377
 20
-0.0420966262
 10
0.3724274823
 20
-0.0624652453
 10
0.3654730123
 20
-0.0835461203
 10
0.3594335844
 20
-0.1050741471
 10
0.3543851477
 20
-0.1267785982
 10
0.3503911895
 20
-0.1483865276
 10
0.3475019359
 20
-0.169626203
 10
0.345753721
 20
-0.1902305232
 10
0.3451685297
 20
-0.2099403768
 10
0.345753721
 20
-0.2285079011
 10
0.3475019359
 20
-0.2456995987
 10
0.3503911895
 20
-0.2612992739
 10
0.3543851477
 20
-0.2751107519
 10
0.3594335844
 20
-0.2869603452
 10
0.3654730123
 20
-0.2966990383
 10
0.3724274823
 20
-0.3042043616
 10
0.3802095377
 20
-0.3093819313
 10
0.3887213148
 20
-0.3121666363
 10
0.3978557731
 20
-0.3125234575
 10
0.4074980413
 20
-0.3104479075
 10
0.4114236881
 20
-0.3089611483
  0
LWPOLYLINE
  5
C6
330
1F
100
AcDbEntity
  8
0
  6
Continuous
 62
     7
370
    25
100
AcDbPolyline
 90
       30
 70
   128
 43
0.0
 10
0.4852305451
 20
0.0747773459
 10
0.4824450069
 20
0.0754022969
 10
0.4733105487
 20
0.0757591181
 10
0.4636682805
 20
0.0736835681
 10
0.4536394593
 20
0.0692017483
 10
0.4433502036
 20
0.0623700201
 10
0.4329299065
 20
0.0532742964
 10
0.4225096095
 20
0.0420289613
 10
0.4122203537
 20
0.0287754314
 10
0.4021915326
 20
0.0136803775
 10
0.3925492643
 20
-0.0030663713
 10
0.3834148061
 20
-0.021254215
 10
0.374903029
 20
-0.0406544309
 10
0.3671209735
 20
-0.0610230499
 10
0.3601665036
 20
-0.082103925
 10
0.3541270756
 20
-0.1036319518
 10
0.349078639
 20
-0.1253364029
 10
0.3450846807
 20
-0.1469443323
 10
0.3421954271
 20
-0.1681840077
 10
0.3404472123
 20
-0.1887883278
 10
0.3398620209
 20
-0.2084981815
 10
0.3404472123
 20
-0.2270657058
 10
0.3421954271
 20
-0.2442574033
 10
0.3450846807
 20
-0.2598570785
 10
0.349078639
 20
-0.2736685565
 10
0.3541270756
 20
-0.2855181498
 10
0.3601665036
 20
-0.295256843
 10
0.3671209735
 20
-0.3027621663
 10
0.374903029
 20
-0.3079397359
 10
0.380629268
 20
-0.31009949
  0
LWPOLYLINE
  5
C8
330
1F
100
AcDbEntity
  8
0
  6
Continuous
 62
     7
370
    25
100
AcDbPolyline
 90
       36
 70
   128
 43
0.0
 10
0.4625615082
 20
0.0733003138
 10
0.4563901349
 20
0.0801521463
 10
0.4487807319
 20
0.0855909435
 10
0.4404469108
 20
0.0887071256
 10
0.431489833
 20
0.0894628664
 10
0.4220182252
 20
0.0878489922
 10
0.41214706
 20
0.0838850933
 10
0.4019961598
 20
0.077619286
 10
0.3916887429
 20
0.0691276288
 10
0.3813499274
 20
0.0585131988
 10
0.3711052125
 20
0.0459048409
 10
0.3610789551
 20
0.0314556034
 10
0.3513928604
 20
0.0153408805
 10
0.3421645045
 20
-0.0022437168
 10
0.3335059071
 20
-0.0210847354
 10
0.3255221719
 20
-0.0409534709
 10
0.3183102106
 20
-0.0616087437
 10
0.3119575666
 20
-0.0827998268
 10
0.3065413524
 20
-0.1042694891
 10
0.3021273136
 20
-0.125757118
 10
0.2987690306
 20
-0.1470018829
 10
0.2965072684
 20
-0.1677459009
 10
0.2953694816
 20
-0.187737368
 10
0.2953694816
 20
-0.2067336147
 10
0.2965072684
 20
-0.2245040523
 10
0.2987690306
 20
-0.2408329719
 10
0.3021273136
 20
-0.2555221623
 10
0.3065413524
 20
-0.2683933169
 10
0.3119575666
 20
-0.2792901971
 10
0.3183102106
 20
-0.2880805296
 10
0.3255221719
 20
-0.2946576117
 10
0.3335059071
 20
-0.2989416065
 10
0.3421645045
 20
-0.3008805122
 10
0.3513928604
 20
-0.300450793
 10
0.3610789551
 20
-0.2976576651
 10
0.36182635
 20
-0.2973512692
  0
LWPOLYLINE
  5
CA
330
1F
100
AcDbEntity
  8
0
  6
Continuous
 62
     7
370
    25
100
AcDbPolyline
 90
       31
 70
   128
 43
0.0
 10
0.4365498523
 20
0.0898001865
 10
0.4351404021
 20
0.0901493209
 10
0.4261833243
 20
0.0909050617
 10
0.4167117165
 20
0.0892911876
 10
0.4068405512
 20
0.0853272887
 10
0.3966896511
 20
0.0790614814
 10
0.3863822342
 20
0.0705698241
 10
0.3760434187
 20
0.0599553942
 10
0.3657987038
 20
0.0473470362
 10
0.3557724463
 20
0.0328977988
 10
0.3460863516
 20
0.0167830759
 10
0.3368579957
 20
-0.0008015214
 10
0.3281993984
 20
-0.0196425401
 10
0.3202156631
 20
-0.0395112756
 10
0.3130037018
 20
-0.0601665483
 10
0.3066510578
 20
-0.0813576314
 10
0.3012348437
 20
-0.1028272937
 10
0.2968208049
 20
-0.1243149226
 10
0.2934625219
 20
-0.1455596875
 10
0.2912007596
 20
-0.1663037056
 10
0.2900629729
 20
-0.1862951726
 10
0.2900629729
 20
-0.2052914193
 10
0.2912007596
 20
-0.223061857
 10
0.2934625219
 20
-0.2393907765
 10
0.2968208049
 20
-0.254079967
 10
0.3012348437
 20
-0.2669511215
 10
0.3066510578
 20
-0.2778480017
 10
0.3130037018
 20
-0.2866383342
 10
0.3202156631
 20
-0.2932154163
 10
0.3281993984
 20
-0.2974994112
 10
0.3310412806
 20
-0.2984150089
  0
LWPOLYLINE
  5
CC
330
1F
100
AcDbEntity
  8
0
  6
Continuous
 62
     7
370
    25
100
AcDbPolyline
 90
       36
 70
   128
 43
0.0
 10
0.4139101554
 20
0.0883909136
 10
0.4078344217
 20
0.0951044227
 10
0.4001595835
 20
0.1005899895
 10
0.3917540978
 20
0.1037329684
 10
0.3827199958
 20
0.104495208
 10
0.3731669393
 20
0.1028674557
 10
0.3632108895
 20
0.0988694703
 10
0.3529726992
 20
0.0925497818
 10
0.3425766462
 20
0.0839851026
 10
0.3321489247
 20
0.0732793965
 10
0.3218161129
 20
0.0605626162
 10
0.3117036372
 20
0.0459891261
 10
0.3019342493
 20
0.0297358287
 10
0.2926265365
 20
0.012000017
 10
0.2838934816
 20
-0.0070030202
 10
0.2758410923
 20
-0.0270426119
 10
0.2685671135
 20
-0.0478755046
 10
0.2621598416
 20
-0.0692488151
 10
0.256697052
 20
-0.0909031004
 10
0.2522450558
 20
-0.1125755068
 10
0.2488578941
 20
-0.1340029607
 10
0.2465766824
 20
-0.1549253618
 10
0.2454291116
 20
-0.1750887404
 10
0.2454291116
 20
-0.1942483406
 10
0.2465766824
 20
-0.2121715907
 10
0.2488578941
 20
-0.2286409267
 10
0.2522450558
 20
-0.2434564332
 10
0.256697052
 20
-0.25643827
 10
0.2621598416
 20
-0.2674288552
 10
0.2685671135
 20
-0.276294778
 10
0.2758410923
 20
-0.282928418
 10
0.2838934816
 20
-0.287249252
 10
0.2926265365
 20
-0.2892048308
 10
0.3019342493
 20
-0.2887714163
 10
0.3117036372
 20
-0.2859542697
 10
0.3122293689
 20
-0.285740077
  0
LWPOLYLINE
  5
CE
330
1F
100
AcDbEntity
  8
0
  6
Continuous
 62
     7
370
    25
100
AcDbPolyline
 90
       31
 70
   128
 43
0.0
 10
0.3878691595
 20
0.1048230271
 10
0.3864475891
 20
0.1051751638
 10
0.3774134871
 20
0.1059374034
 10
0.3678604306
 20
0.1043096511
 10
0.3579043807
 20
0.1003116656
 10
0.3476661904
 20
0.0939919771
 10
0.3372701375
 20
0.085427298
 10
0.3268424159
 20
0.0747215919
 10
0.3165096041
 20
0.0620048115
 10
0.3063971284
 20
0.0474313215
 10
0.2966277406
 20
0.0311780241
 10
0.2873200277
 20
0.0134422124
 10
0.2785869729
 20
-0.0055608249
 10
0.2705345836
 20
-0.0256004166
 10
0.2632606048
 20
-0.0464333092
 10
0.2568533328
 20
-0.0678066197
 10
0.2513905433
 20
-0.089460905
 10
0.2469385471
 20
-0.1111333114
 10
0.2435513853
 20
-0.1325607653
 10
0.2412701736
 20
-0.1534831664
 10
0.2401226028
 20
-0.1736465451
 10
0.2401226028
 20
-0.1928061452
 10
0.2412701736
 20
-0.2107293953
 10
0.2435513853
 20
-0.2271987313
 10
0.2469385471
 20
-0.2420142378
 10
0.2513905433
 20
-0.2549960746
 10
0.2568533328
 20
-0.2659866598
 10
0.2632606048
 20
-0.2748525826
 10
0.2705345836
 20
-0.2814862227
 10
0.2785869729
 20
-0.2858070566
 10
0.2814532932
 20
-0.2867305278
  0
LWPOLYLINE
  5
D0
330
1F
100
AcDbEntity
  8
0
  6
Continuous
 62
     7
370
    25
100
AcDbPolyline
 90
       36
 70
   128
 43
0.0
 10
0.3652584557
 20
0.1034802366
 10
0.3592787084
 20
0.1100566991
 10
0.3515384351
 20
0.1155890355
 10
0.3430612848
 20
0.1187588113
 10
0.3339501587
 20
0.1195275497
 10
0.3243156534
 20
0.1178859193
 10
0.3142747189
 20
0.1138538473
 10
0.3039492385
 20
0.1074802775
 10
0.2934645496
 20
0.0988425765
 10
0.2829479219
 20
0.0880455942
 10
0.2725270133
 20
0.0752203915
 10
0.2623283193
 20
0.0605226488
 10
0.2524756383
 20
0.0441307769
 10
0.2430885685
 20
0.0262437508
 10
0.2342810562
 20
0.007078695
 10
0.2261600127
 20
-0.013131753
 10
0.2188240165
 20
-0.0341422655
 10
0.2123621166
 20
-0.0556978034
 10
0.2068527517
 20
-0.0775367117
 10
0.202362798
 20
-0.0993938956
 10
0.1989467576
 20
-0.1210040385
 10
0.1966460964
 20
-0.1421048226
 10
0.1954887415
 20
-0.1624401129
 10
0.1954887415
 20
-0.1817630665
 10
0.1966460964
 20
-0.199839129
 10
0.1989467576
 20
-0.2164488815
 10
0.202362798
 20
-0.231390704
 10
0.2068527517
 20
-0.2444832231
 10
0.2123621166
 20
-0.2555675133
 10
0.2188240165
 20
-0.2645090263
 10
0.2261600127
 20
-0.2711992244
 10
0.2342810562
 20
-0.2755568975
 10
0.2430885685
 20
-0.2775291494
 10
0.2524756383
 20
-0.2770920397
 10
0.2623283193
 20
-0.2742508742
 10
0.2626327347
 20
-0.274127608
  0
LWPOLYLINE
  5
D2
330
1F
100
AcDbEntity
  8
0
  6
Continuous
 62
     7
370
    25
100
AcDbPolyline
 90
       31
 70
   128
 43
0.0
 10
0.3391884666
 20
0.1198458676
 10
0.3377547761
 20
0.1202010066
 10
0.3286436499
 20
0.120969745
 10
0.3190091447
 20
0.1193281147
 10
0.3089682102
 20
0.1152960426
 10
0.2986427298
 20
0.1089224729
 10
0.2881580408
 20
0.1002847719
 10
0.2776414132
 20
0.0894877896
 10
0.2672205045
 20
0.0766625869
 10
0.2570218105
 20
0.0619648442
 10
0.2471691295
 20
0.0455729722
 10
0.2377820598
 20
0.0276859462
 10
0.2289745475
 20
0.0085208903
 10
0.220853504
 20
-0.0116895576
 10
0.2135175078
 20
-0.0327000701
 10
0.2070556078
 20
-0.054255608
 10
0.2015462429
 20
-0.0760945163
 10
0.1970562893
 20
-0.0979517002
 10
0.1936402488
 20
-0.1195618431
 10
0.1913395877
 20
-0.1406626272
 10
0.1901822327
 20
-0.1609979175
 10
0.1901822327
 20
-0.1803208711
 10
0.1913395877
 20
-0.1983969336
 10
0.1936402488
 20
-0.2150066861
 10
0.1970562893
 20
-0.2299485086
 10
0.2015462429
 20
-0.2430410277
 10
0.2070556078
 20
-0.2541253179
 10
0.2135175078
 20
-0.2630668309
 10
0.220853504
 20
-0.269757029
 10
0.2289745475
 20
-0.2741147021
 10
0.2318653058
 20
-0.2750460468
  0
LWPOLYLINE
  5
D4
330
1F
100
AcDbEntity
  8
0
  6
Continuous
 62
     7
370
    25
100
AcDbPolyline
 90
       36
 70
   128
 43
0.0
 10
0.3166064185
 20
0.1185683178
 10
0.3107229952
 20
0.1250089756
 10
0.3029172867
 20
0.1305880815
 10
0.2943684718
 20
0.1337846541
 10
0.2851803215
 20
0.1345598913
 10
0.2754643675
 20
0.1329043828
 10
0.2653385484
 20
0.1288382243
 10
0.2549257779
 20
0.1224107732
 10
0.2443524529
 20
0.1137000504
 10
0.2337469192
 20
0.102811792
 10
0.2232379136
 20
0.0898781668
 10
0.2129530014
 20
0.0750561715
 10
0.2030170272
 20
0.0585257251
 10
0.1935506005
 20
0.0404874847
 10
0.1846686308
 20
0.0211604102
 10
0.1764789332
 20
0.000779106
 10
0.1690809195
 20
-0.0204090263
 10
0.1625643916
 20
-0.0421467917
 10
0.1570084513
 20
-0.0641703229
 10
0.1524805402
 20
-0.0862122843
 10
0.149035621
 20
-0.1080051163
 10
0.1467155104
 20
-0.1292842834
 10
0.1455483714
 20
-0.1497914853
 10
0.1455483714
 20
-0.1692777924
 10
0.1467155104
 20
-0.1875066674
 10
0.149035621
 20
-0.2042568363
 10
0.1524805402
 20
-0.2193249748
 10
0.1570084513
 20
-0.2325281761
 10
0.1625643916
 20
-0.2437061713
 10
0.1690809195
 20
-0.2527232747
 10
0.1764789332
 20
-0.2594700307
 10
0.1846686308
 20
-0.263864543
 10
0.1935506005
 20
-0.265853468
 10
0.2030170272
 20
-0.265412663
 10
0.2129530014
 20
-0.2625474787
 10
0.213036438
 20
-0.2625138973
  0
LWPOLYLINE
  5
D6
330
1F
100
AcDbEntity
  8
0
  6
Continuous
 62
     7
370
    25
100
AcDbPolyline
 90
       31
 70
   128
 43
0.0
 10
0.2905077738
 20
0.1348687082
 10
0.289061963
 20
0.1352268495
 10
0.2798738128
 20
0.1360020867
 10
0.2701578588
 20
0.1343465782
 10
0.2600320397
 20
0.1302804196
 10
0.2496192692
 20
0.1238529686
 10
0.2390459441
 20
0.1151422457
 10
0.2284404104
 20
0.1042539873
 10
0.2179314049
 20
0.0913203622
 10
0.2076464926
 20
0.0764983669
 10
0.1977105185
 20
0.0599679204
 10
0.1882440918
 20
0.04192968
 10
0.179362122
 20
0.0226026055
 10
0.1711724244
 20
0.0022213014
 10
0.1637744107
 20
-0.018966831
 10
0.1572578828
 20
-0.0407045963
 10
0.1517019426
 20
-0.0627281276
 10
0.1471740315
 20
-0.084770089
 10
0.1437291123
 20
-0.1065629209
 10
0.1414090017
 20
-0.127842088
 10
0.1402418626
 20
-0.1483492899
 10
0.1402418626
 20
-0.1678355971
 10
0.1414090017
 20
-0.186064472
 10
0.1437291123
 20
-0.2028146409
 10
0.1471740315
 20
-0.2178827794
 10
0.1517019426
 20
-0.2310859808
 10
0.1572578828
 20
-0.242263976
 10
0.1637744107
 20
-0.2512810793
 10
0.1711724244
 20
-0.2580278353
 10
0.179362122
 20
-0.2624223476
 10
0.1822773184
 20
-0.2633615657
  0
LWPOLYLINE
  5
D8
330
1F
100
AcDbEntity
  8
0
  6
Continuous
 62
     7
370
    25
100
AcDbPolyline
 90
       36
 70
   128
 43
0.0
 10
0.26811036
 20
0.133707881
 10
0.2631251954
 20
0.1392946514
 10
0.2554850606
 20
0.1451298762
 10
0.2471072423
 20
0.1486500062
 10
0.2380899626
 20
0.1498137713
 10
0.2285389411
 20
0.1486075273
 10
0.2185661547
 20
0.1450454163
 10
0.2082885251
 20
0.1391692008
 10
0.1978265483
 20
0.1310477741
 10
0.1873028813
 20
0.1207763525
 10
0.1768409044
 20
0.1084753589
 10
0.1665632749
 20
0.0942890114
 10
0.1565904884
 20
0.0783836318
 10
0.1470394669
 20
0.0609456962
 10
0.1380221873
 20
0.0421796485
 10
0.129644369
 20
0.0223055033
 10
0.1220042341
 20
0.0015562669
 10
0.1151913564
 20
-0.0198247949
 10
0.1092856106
 20
-0.0415870087
 10
0.1043562362
 20
-0.0634752324
 10
0.1004610255
 20
-0.0852328467
 10
0.0976456463
 20
-0.1066047633
 10
0.0959431064
 20
-0.1273404162
 10
0.0953733666
 20
-0.1471966987
 10
0.0959431064
 20
-0.1659408141
 10
0.0976456463
 20
-0.1833530048
 10
0.1004610255
 20
-0.1992291287
 10
0.1043562362
 20
-0.2133830528
 10
0.1092856106
 20
-0.2256488354
 10
0.1151913564
 20
-0.2358826712
 10
0.1220042341
 20
-0.243964578
 10
0.129644369
 20
-0.2497998028
 10
0.1380221873
 20
-0.2533199329
 10
0.1470394669
 20
-0.2544836979
 10
0.1565904884
 20
-0.2532774539
 10
0.1635486041
 20
-0.2510235381
  0
LWPOLYLINE
  5
DA
330
1F
100
AcDbEntity
  8
0
  6
Continuous
 62
     7
370
    25
100
AcDbPolyline
 90
       31
 70
   128
 43
0.0
 10
0.2418760749
 20
0.1500718201
 10
0.2418007335
 20
0.1500922016
 10
0.2327834539
 20
0.1512559667
 10
0.2232324324
 20
0.1500497227
 10
0.213259646
 20
0.1464876117
 10
0.2029820164
 20
0.1406113962
 10
0.1925200396
 20
0.1324899695
 10
0.1819963725
 20
0.1222185478
 10
0.1715343957
 20
0.1099175543
 10
0.1612567661
 20
0.0957312067
 10
0.1512839797
 20
0.0798258272
 10
0.1417329582
 20
0.0623878916
 10
0.1327156786
 20
0.0436218438
 10
0.1243378602
 20
0.0237476987
 10
0.1166977254
 20
0.0029984623
 10
0.1098848477
 20
-0.0183825995
 10
0.1039791019
 20
-0.0401448133
 10
0.0990497274
 20
-0.062033037
 10
0.0951545167
 20
-0.0837906513
 10
0.0923391376
 20
-0.1051625679
 10
0.0906365977
 20
-0.1258982208
 10
0.0900668579
 20
-0.1457545033
 10
0.0906365977
 20
-0.1644986187
 10
0.0923391376
 20
-0.1819108094
 10
0.0951545167
 20
-0.1977869333
 10
0.0990497274
 20
-0.2119408575
 10
0.1039791019
 20
-0.22420664
 10
0.1098848477
 20
-0.2344404759
 10
0.1166977254
 20
-0.2425223827
 10
0.1243378602
 20
-0.2483576074
 10
0.1326403372
 20
-0.251857356
  0
LWPOLYLINE
  5
DC
330
1F
100
AcDbEntity
  8
0
  6
Continuous
 62
     7
370
    25
100
AcDbPolyline
 90
       36
 70
   128
 43
0.0
 10
0.2160266103
 20
0.1476956871
 10
0.2092704107
 20
0.1556821525
 10
0.2015668181
 20
0.1615658437
 10
0.1931194149
 20
0.1651152114
 10
0.1840272392
 20
0.1662886426
 10
0.1743968885
 20
0.1650723797
 10
0.1643412697
 20
0.1614806824
 10
0.1539782758
 20
0.15555566
 10
0.1434294034
 20
0.147366778
 10
0.1328183285
 20
0.1370100436
 10
0.1222694561
 20
0.1246068799
 10
0.1119064623
 20
0.1103027029
 10
0.1018508434
 20
0.0942652157
 10
0.0922204927
 20
0.0766824434
 10
0.083128317
 20
0.0577605279
 10
0.0746809138
 20
0.0377213113
 10
0.0669773212
 20
0.016799735
 10
0.0601078569
 20
-0.0047589144
 10
0.0541530589
 20
-0.0267018817
 10
0.0491827418
 20
-0.0487719055
 10
0.0452551781
 20
-0.070710235
 10
0.0424164149
 20
-0.0922596634
 10
0.040699734
 20
-0.1131675433
 10
0.040125262
 20
-0.1331887489
 10
0.040699734
 20
-0.1520885499
 10
0.0424164149
 20
-0.1696453635
 10
0.0452551781
 20
-0.185653352
 10
0.0491827418
 20
-0.1999248363
 10
0.0541530589
 20
-0.2122924965
 10
0.0601078569
 20
-0.222611333
 10
0.0669773212
 20
-0.2307603668
 10
0.0746809138
 20
-0.236644058
 10
0.083128317
 20
-0.2401934257
 10
0.0922204927
 20
-0.2413668568
 10
0.1018508434
 20
-0.2401505939
 10
0.111549608
 20
-0.2367238841
  0
LWPOLYLINE
  5
DE
330
1F
100
AcDbEntity
  8
0
  6
Continuous
 62
     7
370
    25
100
AcDbPolyline
 90
       31
 70
   128
 43
0.0
 10
0.1878888734
 20
0.1665368561
 10
0.1878129062
 20
0.1665574068
 10
0.1787207305
 20
0.1677308379
 10
0.1690903797
 20
0.166514575
 10
0.1590347609
 20
0.1629228777
 10
0.148671767
 20
0.1569978553
 10
0.1381228947
 20
0.1488089733
 10
0.1275118198
 20
0.1384522389
 10
0.1169629474
 20
0.1260490753
 10
0.1065999535
 20
0.1117448982
 10
0.0965443347
 20
0.0957074111
 10
0.0869139839
 20
0.0781246388
 10
0.0778218082
 20
0.0592027233
 10
0.0693744051
 20
0.0391635066
 10
0.0616708125
 20
0.0182419304
 10
0.0548013481
 20
-0.0033167191
 10
0.0488465501
 20
-0.0252596863
 10
0.0438762331
 20
-0.0473297101
 10
0.0399486694
 20
-0.0692680397
 10
0.0371099061
 20
-0.090817468
 10
0.0353932252
 20
-0.1117253479
 10
0.0348187532
 20
-0.1317465536
 10
0.0353932252
 20
-0.1506463546
 10
0.0371099061
 20
-0.1682031681
 10
0.0399486694
 20
-0.1842111566
 10
0.0438762331
 20
-0.198482641
 10
0.0488465501
 20
-0.2108503011
 10
0.0548013481
 20
-0.2211691376
 10
0.0616708125
 20
-0.2293181714
 10
0.0693744051
 20
-0.2352018626
 10
0.0777458411
 20
-0.2387306796
  0
LWPOLYLINE
  5
E0
330
1F
100
AcDbEntity
  8
0
  6
Continuous
 62
     7
370
    25
100
AcDbPolyline
 90
       36
 70
   128
 43
0.0
 10
0.1685108485
 20
0.1663691186
 10
0.1659653485
 20
0.1690133653
 10
0.1582051516
 20
0.1749402885
 10
0.1496956788
 20
0.1785157362
 10
0.1405366958
 20
0.1796977895
 10
0.1308355833
 20
0.1784725897
 10
0.120706078
 20
0.1748545014
 10
0.1102669391
 20
0.1688859433
 10
0.099640556
 20
0.1606368912
 10
0.0889515132
 20
0.1502040577
 10
0.0783251301
 20
0.1377097584
 10
0.0678859912
 20
0.1233004774
 10
0.0577564859
 20
0.1071451503
 10
0.0480553734
 20
0.0894331837
 10
0.0388963904
 20
0.0703722341
 10
0.0303869176
 20
0.0501857737
 10
0.0226267207
 20
0.0291104703
 10
0.015706781
 20
0.0073934127
 10
0.0097082285
 20
-0.0147107867
 10
0.0047013906
 20
-0.0369429762
 10
0.0007449681
 20
-0.0590425037
 10
-0.0021146538
 20
-0.0807502726
 10
-0.0038439485
 20
-0.101811779
 10
-0.0044226416
 20
-0.121980096
 10
-0.0038439485
 20
-0.1410187686
 10
-0.0021146538
 20
-0.1587045857
 10
0.0007449681
 20
-0.1748301974
 10
0.0047013906
 20
-0.1892065455
 10
0.0097082285
 20
-0.2016650805
 10
0.015706781
 20
-0.2120597375
 10
0.0226267207
 20
-0.2202686486
 10
0.0303869176
 20
-0.2261955719
 10
0.0388963904
 20
-0.2297710196
 10
0.0480553734
 20
-0.2309530728
 10
0.0577564859
 20
-0.2297278731
 10
0.0611184783
 20
-0.2287774493
  0
LWPOLYLINE
  5
E2
330
1F
100
AcDbEntity
  8
0
  6
Continuous
 62
     7
370
    25
100
AcDbPolyline
 90
       31
 70
   128
 43
0.0
 10
0.1444656954
 20
0.1799372298
 10
0.14438917
 20
0.1799579316
 10
0.135230187
 20
0.1811399848
 10
0.1255290746
 20
0.1799147851
 10
0.1153995693
 20
0.1762966968
 10
0.1049604304
 20
0.1703281386
 10
0.0943340473
 20
0.1620790865
 10
0.0836450045
 20
0.1516462531
 10
0.0730186213
 20
0.1391519538
 10
0.0625794824
 20
0.1247426728
 10
0.0524499772
 20
0.1085873457
 10
0.0427488647
 20
0.0908753791
 10
0.0335898817
 20
0.0718144295
 10
0.0250804089
 20
0.0516279691
 10
0.017320212
 20
0.0305526657
 10
0.0104002723
 20
0.008835608
 10
0.0044017198
 20
-0.0132685913
 10
-0.0006051181
 20
-0.0355007808
 10
-0.0045615407
 20
-0.0576003084
 10
-0.0074211625
 20
-0.0793080772
 10
-0.0091504572
 20
-0.1003695836
 10
-0.0097291503
 20
-0.1205379006
 10
-0.0091504572
 20
-0.1395765732
 10
-0.0074211625
 20
-0.1572623904
 10
-0.0045615407
 20
-0.173388002
 10
-0.0006051181
 20
-0.1877643501
 10
0.0044017198
 20
-0.2002228851
 10
0.0104002723
 20
-0.2106175421
 10
0.017320212
 20
-0.2188264533
 10
0.0250804089
 20
-0.2247533765
 10
0.0335133563
 20
-0.2283081225
  0
LWPOLYLINE
  5
E4
330
1F
100
AcDbEntity
  8
0
  6
Continuous
 62
     7
370
    25
100
AcDbPolyline
 90
       36
 70
   128
 43
0.0
 10
0.1219950726
 20
0.1789088797
 10
0.1174170724
 20
0.183958671
 10
0.1095934178
 20
0.1899340607
 10
0.1010143602
 20
0.1935387461
 10
0.0917804811
 20
0.1947304653
 10
0.0820000394
 20
0.1934952468
 10
0.0717877017
 20
0.1898475721
 10
0.0612631985
 20
0.1838302071
 10
0.0505499198
 20
0.1755136997
 10
0.0397734692
 20
0.1649955535
 10
0.0290601905
 20
0.152399084
 10
0.0185356873
 20
0.1378719735
 10
0.0083233496
 20
0.1215845389
 10
-0.0014570921
 20
0.1037277356
 10
-0.0106909712
 20
0.0845109182
 10
-0.0192700288
 20
0.0641593863
 10
-0.0270936834
 20
0.0429117431
 10
-0.0340702098
 20
0.0210170977
 10
-0.0401178145
 20
-0.0012678551
 10
-0.045165595
 20
-0.0236818447
 10
-0.0491543705
 20
-0.0459620875
 10
-0.0520373765
 20
-0.067847368
 10
-0.0537808122
 20
-0.0890811014
 10
-0.0543642375
 20
-0.1094143416
 10
-0.0537808122
 20
-0.1286086998
 10
-0.0520373765
 20
-0.1464391398
 10
-0.0491543705
 20
-0.162696616
 10
-0.045165595
 20
-0.1771905244
 10
-0.0401178145
 20
-0.189750937
 10
-0.0340702098
 20
-0.2002305946
 10
-0.0270936834
 20
-0.2085066328
 10
-0.0192700288
 20
-0.2144820225
 10
-0.0106909712
 20
-0.2180867078
 10
-0.0014570921
 20
-0.2192784271
 10
0.0083233496
 20
-0.2180432085
 10
0.0146544481
 20
-0.2160472914
  0
LWPOLYLINE
  5
E6
330
1F
100
AcDbEntity
  8
0
  6
Continuous
 62
     7
370
    25
100
AcDbPolyline
 90
       31
 70
   128
 43
0.0
 10
0.0957850026
 20
0.1949600704
 10
0.0957078515
 20
0.1949809414
 10
0.0864739724
 20
0.1961726607
 10
0.0766935306
 20
0.1949374421
 10
0.066481193
 20
0.1912897675
 10
0.0559566898
 20
0.1852724024
 10
0.0452434111
 20
0.1769558951
 10
0.0344669604
 20
0.1664377488
 10
0.0237536818
 20
0.1538412794
 10
0.0132291786
 20
0.1393141689
 10
0.0030168409
 20
0.1230267343
 10
-0.0067636008
 20
0.1051699309
 10
-0.0159974799
 20
0.0859531135
 10
-0.0245765376
 20
0.0656015817
 10
-0.0324001922
 20
0.0443539385
 10
-0.0393767185
 20
0.0224592931
 10
-0.0454243233
 20
0.0001743403
 10
-0.0504721037
 20
-0.0222396493
 10
-0.0544608793
 20
-0.0445198921
 10
-0.0573438852
 20
-0.0664051727
 10
-0.0590873209
 20
-0.0876389061
 10
-0.0596707462
 20
-0.1079721462
 10
-0.0590873209
 20
-0.1271665044
 10
-0.0573438852
 20
-0.1449969445
 10
-0.0544608793
 20
-0.1612544207
 10
-0.0504721037
 20
-0.175748329
 10
-0.0454243233
 20
-0.1883087416
 10
-0.0393767185
 20
-0.1987883992
 10
-0.0324001922
 20
-0.2070644374
 10
-0.0245765376
 20
-0.2130398271
 10
-0.0160746311
 20
-0.2166236414
  0
LWPOLYLINE
  5
E8
330
1F
100
AcDbEntity
  8
0
  6
Continuous
 62
     7
370
    25
100
AcDbPolyline
 90
       37
 70
   128
 43
0.0
 10
0.0733414786
 20
0.1939912331
 10
0.0697495873
 20
0.1980337106
 10
0.0620979003
 20
0.2042498182
 10
0.0536976076
 20
0.2081639271
 10
0.0446438879
 20
0.2097316887
 10
0.0350393234
 20
0.2089353396
 10
0.0249927378
 20
0.2057839029
 10
0.0146179628
 20
0.2003130855
 10
0.0040325487
 20
0.192584874
 10
-0.0066435674
 20
0.1826868322
 10
-0.0172894208
 20
0.1707311087
 10
-0.0277843899
 20
0.1568531668
 10
-0.0380095624
 20
0.141210249
 10
-0.0478490831
 20
0.1239795959
 10
-0.0571914662
 20
0.1053564377
 10
-0.0659308587
 20
0.0855517821
 10
-0.07396824
 20
0.0647900238
 10
-0.0812125432
 20
0.0433064019
 10
-0.0875816875
 20
0.0213443343
 10
-0.093003508
 20
-0.0008473399
 10
-0.0974165732
 20
-0.0230171802
 10
-0.1007708813
 20
-0.0449139934
 10
-0.1030284268
 20
-0.0662896799
 10
-0.1041636307
 20
-0.0869020447
 10
-0.1041636307
 20
-0.1065175414
 10
-0.1030284268
 20
-0.1249139185
 10
-0.1007708813
 20
-0.1418827379
 10
-0.0974165732
 20
-0.1572317359
 10
-0.093003508
 20
-0.1707870023
 10
-0.0875816875
 20
-0.1823949505
 10
-0.0812125432
 20
-0.1919240579
 10
-0.07396824
 20
-0.1992663558
 10
-0.0659308587
 20
-0.2043386531
 10
-0.0571914662
 20
-0.2070834785
 10
-0.0478490831
 20
-0.2074697322
 10
-0.0380095624
 20
-0.2054930377
 10
-0.0349402918
 20
-0.2044278528
  0
LWPOLYLINE
  5
EA
330
1F
100
AcDbEntity
  8
0
  6
Continuous
 62
     7
370
    25
100
AcDbPolyline
 90
       31
 70
   128
 43
0.0
 10
0.0471043098
 20
0.2099829109
 10
0.0393373791
 20
0.211173884
 10
0.0297328147
 20
0.210377535
 10
0.019686229
 20
0.2072260982
 10
0.009311454
 20
0.2017552809
 10
-0.00127396
 20
0.1940270694
 10
-0.0119500761
 20
0.1841290275
 10
-0.0225959296
 20
0.1721733041
 10
-0.0330908987
 20
0.1582953622
 10
-0.0433160712
 20
0.1426524444
 10
-0.0531555918
 20
0.1254217913
 10
-0.0624979749
 20
0.106798633
 10
-0.0712373675
 20
0.0869939774
 10
-0.0792747487
 20
0.0662322192
 10
-0.0865190519
 20
0.0447485972
 10
-0.0928881962
 20
0.0227865297
 10
-0.0983100167
 20
0.0005948555
 10
-0.1027230819
 20
-0.0215749848
 10
-0.1060773901
 20
-0.043471798
 10
-0.1083349355
 20
-0.0648474846
 10
-0.1094701394
 20
-0.0854598493
 10
-0.1094701394
 20
-0.105075346
 10
-0.1083349355
 20
-0.1234717231
 10
-0.1060773901
 20
-0.1404405425
 10
-0.1027230819
 20
-0.1557895405
 10
-0.0983100167
 20
-0.1693448069
 10
-0.0928881962
 20
-0.1809527552
 10
-0.0865190519
 20
-0.1904818625
 10
-0.0792747487
 20
-0.1978241604
 10
-0.0712373675
 20
-0.2028964577
 10
-0.0656626185
 20
-0.2049391603
  0
LWPOLYLINE
  5
ED
330
1F
100
AcDbEntity
  8
0
  6
Continuous
 62
     7
370
    25
100
AcDbPolyline
 90
       13
 70
   128
 43
0.0
 10
-0.1560794057
 20
-0.0848819753
 10
-0.1555014442
 20
-0.1042347974
 10
-0.1537741083
 20
-0.122240128
 10
-0.1509169694
 20
-0.1386939596
 10
-0.1469623999
 20
-0.1534098637
 10
-0.1419552068
 20
-0.1662211031
 10
-0.1359521236
 20
-0.1769825214
 10
-0.1290211675
 20
-0.1855721876
 10
-0.1212408691
 20
-0.1918927771
 10
-0.1126993823
 20
-0.1958726752
 10
-0.1034934855
 20
-0.1974667881
 10
-0.0937274852
 20
-0.1966570538
 10
-0.0838205771
 20
-0.1935819418
  0
LWPOLYLINE
  5
EE
330
1F
100
AcDbEntity
  8
0
  6
Continuous
 62
     7
370
    25
100
AcDbPolyline
 90
       25
 70
   128
 43
0.0
 10
0.0256955908
 20
0.2093790676
 10
0.0244783706
 20
0.2109400845
 10
0.0171123034
 20
0.2184057935
 10
0.0089398279
 20
0.2235633471
 10
0.0000535416
 20
0.2263543082
 10
-0.0094458705
 20
0.2267470542
 10
-0.0194507762
 20
0.224737135
 10
-0.0298478158
 20
0.2203473238
 10
-0.0405191869
 20
0.2136273589
 10
-0.0513439784
 20
0.2046533802
 10
-0.0621995412
 20
0.1935270665
 10
-0.0729628774
 20
0.1803744834
 10
-0.0835120342
 20
0.1653446549
 10
-0.0937274852
 20
0.1486078749
 10
-0.1034934855
 20
0.1303537779
 10
-0.1126993823
 20
0.11078919
 10
-0.1212408691
 20
0.0901357859
 10
-0.1290211675
 20
0.0686275769
 10
-0.1359521236
 20
0.0465082596
 10
-0.1419552068
 20
0.0240284547
 10
-0.1469623999
 20
0.0014428673
 10
-0.1509169694
 20
-0.0209925987
 10
-0.1537741083
 20
-0.0430237407
 10
-0.1555014442
 20
-0.064400937
 10
-0.1560794057
 20
-0.0848819753
  0
LWPOLYLINE
  5
EF
330
1F
100
AcDbEntity
  8
0
  6
Continuous
 62
     7
370
    25
100
AcDbPolyline
 90
       11
 70
   128
 43
0.0
 10
-2.514712248
 20
0.5561438918
 10
-2.5141342865
 20
0.5367910697
 10
-2.5124069506
 20
0.5187857391
 10
-2.5095498116
 20
0.5023319075
 10
-2.5055952422
 20
0.4876160035
 10
-2.5005880491
 20
0.474804764
 10
-2.4945849658
 20
0.4640433457
 10
-2.4876540097
 20
0.4554536796
 10
-2.4798737113
 20
0.4491330901
 10
-2.4713322245
 20
0.4451531919
 10
-2.4700238068
 20
0.4447700703
  0
LWPOLYLINE
  5
F0
330
1F
100
AcDbEntity
  8
0
  6
Continuous
 62
     7
370
    25
100
AcDbPolyline
 90
       22
 70
   128
 43
0.0
 10
-2.355361465
 20
0.8666662511
 10
-2.3585793007
 20
0.8673801754
 10
-2.3680787128
 20
0.8677729213
 10
-2.3780836184
 20
0.8657630021
 10
-2.3884806581
 20
0.8613731909
 10
-2.3991520291
 20
0.854653226
 10
-2.4099768207
 20
0.8456792473
 10
-2.4208323835
 20
0.8345529337
 10
-2.4315957197
 20
0.8214003506
 10
-2.4421448764
 20
0.806370522
 10
-2.4523603275
 20
0.7896337421
 10
-2.4621263277
 20
0.771379645
 10
-2.4713322245
 20
0.7518150572
 10
-2.4798737113
 20
0.7311616531
 10
-2.4876540097
 20
0.7096534441
 10
-2.4945849658
 20
0.6875341268
 10
-2.5005880491
 20
0.6650543218
 10
-2.5055952422
 20
0.6424687345
 10
-2.5095498116
 20
0.6200332684
 10
-2.5124069506
 20
0.5980021264
 10
-2.5141342865
 20
0.5766249302
 10
-2.514712248
 20
0.5561438918
  0
LINE
  5
F3
330
1F
100
AcDbEntity
  8
0
  6
Continuous
 62
     7
370
    25
100
AcDbLine
 10
0.6587243643
 20
-0.308174365
 30
0.0
 11
0.6645873795
 21
-0.2994732684
 31
0.0
  0
LINE
  5
F4
330
1F
100
AcDbEntity
  8
0
  6
Continuous
 62
     7
370
    25
100
AcDbLine
 10
0.7247469868
 20
-0.0781180425
 30
0.0
 11
0.7240947544
 21
-0.0676462413
 31
0.0
  0
LINE
  5
F5
330
1F
100
AcDbEntity
  8
0
  6
Continuous
 62
     7
370
    25
100
AcDbLine
 10
0.685259825
 20
0.0132437883
 30
0.0
 11
0.6799533163
 21
0.0146859837
 31
0.0
  0
LINE
  5
F6
330
1F
100
AcDbEntity
  8
0
  6
Continuous
 62
     7
370
    25
100
AcDbLine
 10
0.5789812175
 20
-0.3568374143
 30
0.0
 11
0.5842877262
 21
-0.3582796097
 31
0.0
  0
LINE
  5
F7
330
1F
100
AcDbEntity
  8
0
  6
Continuous
 62
     7
370
    25
100
AcDbLine
 10
0.6055166782
 20
-0.035419261
 30
0.0
 11
0.5906059619
 21
-0.0575477356
 31
0.0
  0
LINE
  5
F8
330
1F
100
AcDbEntity
  8
0
  6
Continuous
 62
     7
370
    25
100
AcDbLine
 10
0.5384875423
 20
-0.2493156853
 30
0.0
 11
0.5401462881
 21
-0.2759473847
 31
0.0
  0
LINE
  5
F9
330
1F
100
AcDbEntity
  8
0
  6
Continuous
 62
     7
370
    25
100
AcDbLine
 10
0.6365791322
 20
0.0282666289
 30
0.0
 11
0.6312726235
 21
0.0297088243
 31
0.0
  0
LINE
  5
FA
330
1F
100
AcDbEntity
  8
0
  6
Continuous
 62
     7
370
    25
100
AcDbLine
 10
0.5293932301
 20
-0.3451529332
 30
0.0
 11
0.5346997388
 21
-0.3465951286
 31
0.0
  0
LINE
  5
FB
330
1F
100
AcDbEntity
  8
0
  6
Continuous
 62
     7
370
    25
100
AcDbLine
 10
0.5561671278
 20
-0.0208466459
 30
0.0
 11
0.5412564115
 21
-0.0429751206
 31
0.0
  0
LINE
  5
FC
330
1F
100
AcDbEntity
  8
0
  6
Continuous
 62
     7
370
    25
100
AcDbLine
 10
0.4885505999
 20
-0.236904359
 30
0.0
 11
0.4902093457
 21
-0.2635360584
 31
0.0
  0
LINE
  5
FD
330
1F
100
AcDbEntity
  8
0
  6
Continuous
 62
     7
370
    25
100
AcDbLine
 10
0.5878984394
 20
0.0432894695
 30
0.0
 11
0.5825919307
 21
0.0447316648
 31
0.0
  0
LINE
  5
FE
330
1F
100
AcDbEntity
  8
0
  6
Continuous
 62
     7
370
    25
100
AcDbLine
 10
0.4798052427
 20
-0.3334684521
 30
0.0
 11
0.4851117515
 21
-0.3349106475
 31
0.0
  0
LINE
  5
FF
330
1F
100
AcDbEntity
  8
0
  6
Continuous
 62
     7
370
    25
100
AcDbLine
 10
0.6960681973
 20
-0.031798546
 30
0.0
 11
0.6951837792
 21
-0.0315581801
 31
0.0
  0
LINE
  5
100
330
1F
100
AcDbEntity
  8
0
  6
Continuous
 62
     7
370
    25
100
AcDbLine
 10
0.6155238772
 20
-0.3246640759
 30
0.0
 11
0.6164082953
 21
-0.3249044417
 31
0.0
  0
LINE
  5
101
330
1F
100
AcDbEntity
  8
0
  6
Continuous
 62
     7
370
    25
100
AcDbLine
 10
0.5068175774
 20
-0.0062740309
 30
0.0
 11
0.491906861
 21
-0.0284025056
 31
0.0
  0
LINE
  5
102
330
1F
100
AcDbEntity
  8
0
  6
Continuous
 62
     7
370
    25
100
AcDbLine
 10
0.4386136575
 20
-0.2244930327
 30
0.0
 11
0.4402724033
 21
-0.2511247321
 31
0.0
  0
LINE
  5
103
330
1F
100
AcDbEntity
  8
0
  6
Continuous
 62
     7
370
    25
100
AcDbLine
 10
0.5392177466
 20
0.05831231
 30
0.0
 11
0.5339112379
 21
0.0597545054
 31
0.0
  0
LINE
  5
104
330
1F
100
AcDbEntity
  8
0
  6
Continuous
 62
     7
370
    25
100
AcDbLine
 10
0.4302172554
 20
-0.3217839711
 30
0.0
 11
0.4355237641
 21
-0.3232261664
 31
0.0
  0
LINE
  5
105
330
1F
100
AcDbEntity
  8
0
  6
Continuous
 62
     7
370
    25
100
AcDbLine
 10
0.4574680269
 20
0.0082985841
 30
0.0
 11
0.4425573106
 21
-0.0138298906
 31
0.0
  0
LINE
  5
106
330
1F
100
AcDbEntity
  8
0
  6
Continuous
 62
     7
370
    25
100
AcDbLine
 10
0.3886767151
 20
-0.2120817064
 30
0.0
 11
0.3903354609
 21
-0.2387134059
 31
0.0
  0
LINE
  5
107
330
1F
100
AcDbEntity
  8
0
  6
Continuous
 62
     7
370
    25
100
AcDbLine
 10
0.4905370538
 20
0.0733351506
 30
0.0
 11
0.4852305451
 21
0.0747773459
 31
0.0
  0
LINE
  5
108
330
1F
100
AcDbEntity
  8
0
  6
Continuous
 62
     7
370
    25
100
AcDbLine
 10
0.380629268
 20
-0.31009949
 30
0.0
 11
0.3859357767
 21
-0.3115416854
 31
0.0
  0
LINE
  5
109
330
1F
100
AcDbEntity
  8
0
  6
Continuous
 62
     7
370
    25
100
AcDbLine
 10
0.4081184765
 20
0.0228711991
 30
0.0
 11
0.3932077602
 21
0.0007427244
 31
0.0
  0
LINE
  5
10A
330
1F
100
AcDbEntity
  8
0
  6
Continuous
 62
     7
370
    25
100
AcDbLine
 10
0.3387397727
 20
-0.1996703801
 30
0.0
 11
0.3403985185
 21
-0.2263020796
 31
0.0
  0
LINE
  5
10B
330
1F
100
AcDbEntity
  8
0
  6
Continuous
 62
     7
370
    25
100
AcDbLine
 10
0.441856361
 20
0.0883579911
 30
0.0
 11
0.4365498523
 21
0.0898001865
 31
0.0
  0
LINE
  5
10C
330
1F
100
AcDbEntity
  8
0
  6
Continuous
 62
     7
370
    25
100
AcDbLine
 10
0.3310412806
 20
-0.2984150089
 30
0.0
 11
0.3363477893
 21
-0.2998572043
 31
0.0
  0
LINE
  5
10D
330
1F
100
AcDbEntity
  8
0
  6
Continuous
 62
     7
370
    25
100
AcDbLine
 10
0.3587689261
 20
0.0374438142
 30
0.0
 11
0.3438582097
 21
0.0153153395
 31
0.0
  0
LINE
  5
10E
330
1F
100
AcDbEntity
  8
0
  6
Continuous
 62
     7
370
    25
100
AcDbLine
 10
0.2888028303
 20
-0.1872590538
 30
0.0
 11
0.2904615761
 21
-0.2138907533
 31
0.0
  0
LINE
  5
10F
330
1F
100
AcDbEntity
  8
0
  6
Continuous
 62
     7
370
    25
100
AcDbLine
 10
0.3931756682
 20
0.1033808317
 30
0.0
 11
0.3878691595
 21
0.1048230271
 31
0.0
  0
LINE
  5
110
330
1F
100
AcDbEntity
  8
0
  6
Continuous
 62
     7
370
    25
100
AcDbLine
 10
0.2814532932
 20
-0.2867305278
 30
0.0
 11
0.2867598019
 21
-0.2881727232
 31
0.0
  0
LINE
  5
111
330
1F
100
AcDbEntity
  8
0
  6
Continuous
 62
     7
370
    25
100
AcDbLine
 10
0.3094193756
 20
0.0520164292
 30
0.0
 11
0.2945086593
 21
0.0298879545
 31
0.0
  0
LINE
  5
112
330
1F
100
AcDbEntity
  8
0
  6
Continuous
 62
     7
370
    25
100
AcDbLine
 10
0.2388658879
 20
-0.1748477276
 30
0.0
 11
0.2405246337
 21
-0.201479427
 31
0.0
  0
LINE
  5
113
330
1F
100
AcDbEntity
  8
0
  6
Continuous
 62
     7
370
    25
100
AcDbLine
 10
0.3444949754
 20
0.1184036722
 30
0.0
 11
0.3391884666
 21
0.1198458676
 31
0.0
  0
LINE
  5
114
330
1F
100
AcDbEntity
  8
0
  6
Continuous
 62
     7
370
    25
100
AcDbLine
 10
0.2318653058
 20
-0.2750460468
 30
0.0
 11
0.2371718146
 21
-0.2764882421
 31
0.0
  0
LINE
  5
115
330
1F
100
AcDbEntity
  8
0
  6
Continuous
 62
     7
370
    25
100
AcDbLine
 10
0.2600698252
 20
0.0665890442
 30
0.0
 11
0.2451591088
 21
0.0444605695
 31
0.0
  0
LINE
  5
116
330
1F
100
AcDbEntity
  8
0
  6
Continuous
 62
     7
370
    25
100
AcDbLine
 10
0.1889289455
 20
-0.1624364013
 30
0.0
 11
0.1905876913
 21
-0.1890681008
 31
0.0
  0
LINE
  5
117
330
1F
100
AcDbEntity
  8
0
  6
Continuous
 62
     7
370
    25
100
AcDbLine
 10
0.2958142826
 20
0.1334265128
 30
0.0
 11
0.2905077738
 21
0.1348687082
 31
0.0
  0
LINE
  5
118
330
1F
100
AcDbEntity
  8
0
  6
Continuous
 62
     7
370
    25
100
AcDbLine
 10
0.1822773184
 20
-0.2633615657
 30
0.0
 11
0.1875838272
 21
-0.2648037611
 31
0.0
  0
LINE
  5
119
330
1F
100
AcDbEntity
  8
0
  6
Continuous
 62
     7
370
    25
100
AcDbLine
 10
0.2107202748
 20
0.0811616592
 30
0.0
 11
0.1958095584
 21
0.0590331845
 31
0.0
  0
LINE
  5
11A
330
1F
100
AcDbEntity
  8
0
  6
Continuous
 62
     7
370
    25
100
AcDbLine
 10
0.1389920031
 20
-0.150025075
 30
0.0
 11
0.1406507489
 21
-0.1766567745
 31
0.0
  0
LINE
  5
11B
330
1F
100
AcDbEntity
  8
0
  6
Continuous
 62
     7
370
    25
100
AcDbLine
 10
0.2471825837
 20
0.1486296248
 30
0.0
 11
0.2418760749
 21
0.1500718201
 31
0.0
  0
LINE
  5
11C
330
1F
100
AcDbEntity
  8
0
  6
Continuous
 62
     7
370
    25
100
AcDbLine
 10
0.1326403372
 20
-0.251857356
 30
0.0
 11
0.1379468459
 21
-0.2532995514
 31
0.0
  0
LINE
  5
11D
330
1F
100
AcDbEntity
  8
0
  6
Continuous
 62
     7
370
    25
100
AcDbLine
 10
0.1613474816
 20
0.0958659213
 30
0.0
 11
0.1463666368
 21
0.0736333714
 31
0.0
  0
LINE
  5
11E
330
1F
100
AcDbEntity
  8
0
  6
Continuous
 62
     7
370
    25
100
AcDbLine
 10
0.0889605782
 20
-0.137590266
 30
0.0
 11
0.0906271254
 21
-0.1643472204
 31
0.0
  0
LINE
  5
11F
330
1F
100
AcDbEntity
  8
0
  6
Continuous
 62
     7
370
    25
100
AcDbLine
 10
0.1931953821
 20
0.1650946607
 30
0.0
 11
0.1878888734
 21
0.1665368561
 31
0.0
  0
LINE
  5
120
330
1F
100
AcDbEntity
  8
0
  6
Continuous
 62
     7
370
    25
100
AcDbLine
 10
0.0777458411
 20
-0.2387306796
 30
0.0
 11
0.0830523498
 21
-0.240172875
 31
0.0
  0
LINE
  5
121
330
1F
100
AcDbEntity
  8
0
  6
Continuous
 62
     7
370
    25
100
AcDbLine
 10
0.1066914225
 20
0.1118807317
 30
0.0
 11
0.0917807061
 21
0.0897522569
 31
0.0
  0
LINE
  5
122
330
1F
100
AcDbEntity
  8
0
  6
Continuous
 62
     7
370
    25
100
AcDbLine
 10
0.0337249285
 20
-0.1238619991
 30
0.0
 11
0.0353836743
 21
-0.1504936987
 31
0.0
  0
LINE
  5
123
330
1F
100
AcDbEntity
  8
0
  6
Continuous
 62
     7
370
    25
100
AcDbLine
 10
0.1497722042
 20
0.1784950345
 30
0.0
 11
0.1444656954
 21
0.1799372298
 31
0.0
  0
LINE
  5
124
330
1F
100
AcDbEntity
  8
0
  6
Continuous
 62
     7
370
    25
100
AcDbLine
 10
0.0335133563
 20
-0.2283081225
 30
0.0
 11
0.038819865
 21
-0.2297503178
 31
0.0
  0
LINE
  5
125
330
1F
100
AcDbEntity
  8
0
  6
Continuous
 62
     7
370
    25
100
AcDbLine
 10
0.0626716235
 20
0.1248795043
 30
0.0
 11
0.0477609071
 21
0.1027510295
 31
0.0
  0
LINE
  5
126
330
1F
100
AcDbEntity
  8
0
  6
Continuous
 62
     7
370
    25
100
AcDbLine
 10
-0.0108188241
 20
-0.1127910961
 30
0.0
 11
-0.0091600783
 21
-0.1394227957
 31
0.0
  0
LINE
  5
127
330
1F
100
AcDbEntity
  8
0
  6
Continuous
 62
     7
370
    25
100
AcDbLine
 10
0.1010915113
 20
0.193517875
 30
0.0
 11
0.0957850026
 21
0.1949600704
 31
0.0
  0
LINE
  5
128
330
1F
100
AcDbEntity
  8
0
  6
Continuous
 62
     7
370
    25
100
AcDbLine
 10
-0.0160746311
 20
-0.2166236414
 30
0.0
 11
-0.0107681223
 21
-0.2180658368
 31
0.0
  0
LINE
  5
129
330
1F
100
AcDbEntity
  8
0
  6
Continuous
 62
     7
370
    25
100
AcDbLine
 10
0.0133220731
 20
0.1394521193
 30
0.0
 11
-0.0015886434
 21
0.1173236445
 31
0.0
  0
LINE
  5
12A
330
1F
100
AcDbEntity
  8
0
  6
Continuous
 62
     7
370
    25
100
AcDbLine
 10
-0.0607557665
 20
-0.1003797698
 30
0.0
 11
-0.0590970207
 21
-0.1270114694
 31
0.0
  0
LINE
  5
12B
330
1F
100
AcDbEntity
  8
0
  6
Continuous
 62
     7
370
    25
100
AcDbLine
 10
0.0524108185
 20
0.2085407156
 30
0.0
 11
0.0471043098
 21
0.2099829109
 31
0.0
  0
LINE
  5
12C
330
1F
100
AcDbEntity
  8
0
  6
Continuous
 62
     7
370
    25
100
AcDbLine
 10
-0.0656626185
 20
-0.2049391603
 30
0.0
 11
-0.0603561097
 21
-0.2063813557
 31
0.0
  0
LINE
  5
12D
330
1F
100
AcDbEntity
  8
0
  6
Continuous
 62
     7
370
    25
100
AcDbLine
 10
-0.0360274774
 20
0.1540247344
 30
0.0
 11
-0.0509381938
 21
0.1318962595
 31
0.0
  0
LINE
  5
12E
330
1F
100
AcDbEntity
  8
0
  6
Continuous
 62
     7
370
    25
100
AcDbLine
 10
-0.1106927089
 20
-0.0879684435
 30
0.0
 11
-0.1090339631
 21
-0.1146001431
 31
0.0
  0
LINE
  5
12F
330
1F
100
AcDbEntity
  8
0
  6
Continuous
 62
     7
370
    25
100
AcDbLine
 10
-2.4700238068
 20
0.4447700703
 30
0.0
 11
-0.1113909646
 21
-0.1962557968
 31
0.0
  0
LINE
  5
130
330
1F
100
AcDbEntity
  8
0
  6
Continuous
 62
     7
370
    25
100
AcDbLine
 10
0.0032713772
 20
0.225640384
 30
0.0
 11
-2.355361465
 21
0.8666662511
 31
0.0
  0
LINE
  5
131
330
1F
100
AcDbEntity
  8
0
  6
Continuous
 62
     7
370
    25
100
AcDbLine
 10
-2.3979444365
 20
0.8555213631
 30
0.0
 11
-2.4265009782
 21
0.8353119553
 31
0.0
  0
LINE
  5
132
330
1F
100
AcDbEntity
  8
0
  6
Continuous
 62
     7
370
    25
100
AcDbLine
 10
-2.5155063449
 20
0.5078197407
 30
0.0
 11
-2.5011076027
 21
0.4759360072
 31
0.0
  0
ARC
  5
133
330
1F
100
AcDbEntity
  8
0
  6
Continuous
 62
     7
370
    25
100
AcDbCircle
 10
0.8760915324
 20
-0.2381029061
 30
0.0
 40
0.3377901427913352
100
AcDbArc
 50
147.6887187552
 51
181.9022549275
  0
ARC
  5
134
330
1F
100
AcDbEntity
  8
0
  6
Continuous
 62
     7
370
    25
100
AcDbCircle
 10
0.83163714
 20
-0.2260211548
 30
0.0
 40
0.2962929893026902
100
AcDbArc
 50
138.8532771207
 51
190.737696562
  0
ARC
  5
135
330
1F
100
AcDbEntity
  8
0
  6
Continuous
 62
     7
370
    25
100
AcDbCircle
 10
0.8302137411
 20
-0.2256343055
 30
0.0
 40
0.3418489668729917
100
AcDbArc
 50
147.701707975
 51
181.8892657076
  0
ARC
  5
136
330
1F
100
AcDbEntity
  8
0
  6
Continuous
 62
     7
370
    25
100
AcDbCircle
 10
0.7821651512
 20
-0.2125757283
 30
0.0
 40
0.2969689312450047
100
AcDbArc
 50
138.6298131522
 51
190.9611605304
  0
ARC
  5
137
330
1F
100
AcDbEntity
  8
0
  6
Continuous
 62
     7
370
    25
100
AcDbCircle
 10
0.7840845416
 20
-0.2130973775
 30
0.0
 40
0.3456587808119693
100
AcDbArc
 50
147.701707975
 51
181.8892657076
  0
ARC
  5
138
330
1F
100
AcDbEntity
  8
0
  6
Continuous
 62
     7
370
    25
100
AcDbCircle
 10
0.735735452
 20
-0.1999571309
 30
0.0
 40
0.3004766113544215
100
AcDbArc
 50
138.6746208245
 51
190.9163528582
  0
ARC
  5
139
330
1F
100
AcDbEntity
  8
0
  6
Continuous
 62
     7
370
    25
100
AcDbCircle
 10
0.7379553422
 20
-0.2005604495
 30
0.0
 40
0.3494685947509543
100
AcDbArc
 50
147.701707975
 51
181.8892657076
  0
ARC
  5
13A
330
1F
100
AcDbEntity
  8
0
  6
Continuous
 62
     7
370
    25
100
AcDbCircle
 10
0.6893057528
 20
-0.1873385336
 30
0.0
 40
0.3039842988295417
100
AcDbArc
 50
138.7184607025
 51
190.8725129802
  0
ARC
  5
13B
330
1F
100
AcDbEntity
  8
0
  6
Continuous
 62
     7
370
    25
100
AcDbCircle
 10
0.6895277766
 20
-0.1873988749
 30
0.0
 40
0.3510025833638053
100
AcDbArc
 50
147.5874306752
 51
182.0035430074
  0
ARC
  5
13C
330
1F
100
AcDbEntity
  8
0
  6
Continuous
 62
     7
370
    25
100
AcDbCircle
 10
0.6437327743
 20
-0.1749527745
 30
0.0
 40
0.3082899546619067
100
AcDbArc
 50
138.8337824041
 51
190.7571912786
  0
ARC
  5
13D
330
1F
100
AcDbEntity
  8
0
  6
Continuous
 62
     7
370
    25
100
AcDbCircle
 10
0.6433737912
 20
-0.1748552106
 30
0.0
 40
0.3547878544186562
100
AcDbArc
 50
147.5874306752
 51
182.0035430074
  0
ARC
  5
13E
330
1F
100
AcDbEntity
  8
0
  6
Continuous
 62
     7
370
    25
100
AcDbCircle
 10
0.5973123142
 20
-0.1623366881
 30
0.0
 40
0.3118065490484414
100
AcDbArc
 50
138.8756257502
 51
190.7153479325
  0
ARC
  5
13F
330
1F
100
AcDbEntity
  8
0
  6
Continuous
 62
     7
370
    25
100
AcDbCircle
 10
0.5972198058
 20
-0.1623115463
 30
0.0
 40
0.3585731254735089
100
AcDbArc
 50
147.5874306752
 51
182.0035430074
  0
ARC
  5
140
330
1F
100
AcDbEntity
  8
0
  6
Continuous
 62
     7
370
    25
100
AcDbCircle
 10
0.550891854
 20
-0.1497206017
 30
0.0
 40
0.3153231497146678
100
AcDbArc
 50
138.9165943193
 51
190.6743793634
  0
ARC
  5
141
330
1F
100
AcDbEntity
  8
0
  6
Continuous
 62
     7
370
    25
100
AcDbCircle
 10
0.5510658204
 20
-0.1497678821
 30
0.0
 40
0.3623583965283569
100
AcDbArc
 50
147.5874306752
 51
182.0035430074
  0
ARC
  5
142
330
1F
100
AcDbEntity
  8
0
  6
Continuous
 62
     7
370
    25
100
AcDbCircle
 10
0.5044713939
 20
-0.1371045153
 30
0.0
 40
0.3188397564528072
100
AcDbArc
 50
138.9567154067
 51
190.634258276
  0
ARC
  5
143
330
1F
100
AcDbEntity
  8
0
  6
Continuous
 62
     7
370
    25
100
AcDbCircle
 10
0.5079775052
 20
-0.1380574013
 30
0.0
 40
0.3691795308783161
100
AcDbArc
 50
147.7332939155
 51
181.8576797671
  0
ARC
  5
144
330
1F
100
AcDbEntity
  8
0
  6
Continuous
 62
     7
370
    25
100
AcDbCircle
 10
0.4550377875
 20
-0.1236695204
 30
0.0
 40
0.3195480505679813
100
AcDbArc
 50
138.752349607
 51
190.8386240756
  0
ARC
  5
145
330
1F
100
AcDbEntity
  8
0
  6
Continuous
 62
     7
370
    25
100
AcDbCircle
 10
0.4617679483
 20
-0.1254986339
 30
0.0
 40
0.3730034085851023
100
AcDbArc
 50
147.7332939155
 51
181.8576797671
  0
ARC
  5
146
330
1F
100
AcDbEntity
  8
0
  6
Continuous
 62
     7
370
    25
100
AcDbCircle
 10
0.4085229499
 20
-0.1110277842
 30
0.0
 40
0.3230660673011178
100
AcDbArc
 50
138.7966758378
 51
190.7942978449
  0
ARC
  5
147
330
1F
100
AcDbEntity
  8
0
  6
Continuous
 62
     7
370
    25
100
AcDbCircle
 10
0.410751714
 20
-0.1116335145
 30
0.0
 40
0.3772250426851004
100
AcDbArc
 50
147.7332939155
 51
181.8576797671
  0
ARC
  5
148
330
1F
100
AcDbEntity
  8
0
  6
Continuous
 62
     7
370
    25
100
AcDbCircle
 10
0.3571177922
 20
-0.0970569638
 30
0.0
 40
0.3268979238260131
100
AcDbArc
 50
138.8336075801
 51
190.7573661025
  0
ARC
  5
149
330
1F
100
AcDbEntity
  8
0
  6
Continuous
 62
     7
370
    25
100
AcDbCircle
 10
0.3696106297
 20
-0.1004522493
 30
0.0
 40
0.3806295002428103
100
AcDbArc
 50
147.7332939155
 51
181.8576797671
  0
ARC
  5
14A
330
1F
100
AcDbEntity
  8
0
  6
Continuous
 62
     7
370
    25
100
AcDbCircle
 10
0.3156829554
 20
-0.085795863
 30
0.0
 40
0.330008030614199
100
AcDbArc
 50
138.8669673865
 51
190.7240062961
  0
ARC
  5
14B
330
1F
100
AcDbEntity
  8
0
  6
Continuous
 62
     7
370
    25
100
AcDbCircle
 10
0.3210359742
 20
-0.0872506988
 30
0.0
 40
0.3820174155884259
100
AcDbArc
 50
147.6214600221
 51
181.9695136605
  0
ARC
  5
14C
330
1F
100
AcDbEntity
  8
0
  6
Continuous
 62
     7
370
    25
100
AcDbCircle
 10
0.2735958692
 20
-0.0743574948
 30
0.0
 40
0.3375693214176579
100
AcDbArc
 50
139.2388908305
 51
190.3520828521
  0
ARC
  5
14D
330
1F
100
AcDbEntity
  8
0
  6
Continuous
 62
     7
370
    25
100
AcDbCircle
 10
0.2748893361
 20
-0.0747090314
 30
0.0
 40
0.3858099602911442
100
AcDbArc
 50
147.6214600221
 51
181.9695136605
  0
ARC
  5
14E
330
1F
100
AcDbEntity
  8
0
  6
Continuous
 62
     7
370
    25
100
AcDbCircle
 10
0.2271875881
 20
-0.0617447184
 30
0.0
 40
0.3410976854553767
100
AcDbArc
 50
139.2742717254
 51
190.3167019573
  0
ARC
  5
14F
330
1F
100
AcDbEntity
  8
0
  6
Continuous
 62
     7
370
    25
100
AcDbCircle
 10
-2.1751753518
 20
0.5884934974
 30
0.0
 40
0.3522554778188469
100
AcDbArc
 50
135.5183935605
 51
181.8665183455
  0
ARC
  5
150
330
1F
100
AcDbEntity
  8
0
  6
Continuous
 62
     7
370
    25
100
AcDbCircle
 10
-2.3545290043
 20
0.5707199313
 30
0.0
 40
0.1728297953054381
100
AcDbArc
 50
177.9109198199
 51
201.3425463085
  0
ENDSEC
  0
SECTION
  2
OBJECTS
  0
DICTIONARY
  5
C
330
0
100
AcDbDictionary
281
     1
  3
ACAD_GROUP
350
D
  3
ACAD_LAYOUT
350
1A
  3
ACAD_MLINESTYLE
350
17
  3
ACAD_PLOTSETTINGS
350
19
  3
ACAD_PLOTSTYLENAME
350
E
  3
ACAD_SCALELIST
350
47
  0
DICTIONARY
  5
D
102
{ACAD_REACTORS
330
C
102
}
330
C
100
AcDbDictionary
281
     1
  0
DICTIONARY
  5
1A
102
{ACAD_REACTORS
330
C
102
}
330
C
100
AcDbDictionary
281
     1
  3
Layout1
350
1E
  3
Layout2
350
26
  3
Model
350
22
  0
DICTIONARY
  5
17
102
{ACAD_REACTORS
330
C
102
}
330
C
100
AcDbDictionary
281
     1
  3
Standard
350
18
  0
DICTIONARY
  5
19
102
{ACAD_REACTORS
330
C
102
}
330
C
100
AcDbDictionary
281
     1
  0
ACDBDICTIONARYWDFLT
  5
E
102
{ACAD_REACTORS
330
C
102
}
330
C
100
AcDbDictionary
281
     1
  3
Normal
350
F
100
AcDbDictionaryWithDefault
340
F
  0
DICTIONARY
  5
47
102
{ACAD_REACTORS
330
C
102
}
330
C
100
AcDbDictionary
281
     1
  3
A0
350
48
  3
A1
350
49
  3
A2
350
4A
  3
A3
350
4B
  3
A4
350
4C
  3
A5
350
4D
  3
A6
350
4E
  3
A7
350
4F
  3
A8
350
50
  3
A9
350
51
  3
B0
350
52
  3
B1
350
53
  3
B2
350
54
  3
B3
350
55
  3
B4
350
56
  3
B5
350
57
  3
B6
350
58
  3
B7
350
59
  3
B8
350
5A
  3
B9
350
5B
  3
C0
350
5C
  3
C1
350
5D
  3
C2
350
5E
  3
C3
350
5F
  3
C4
350
60
  3
C5
350
61
  3
C6
350
62
  3
C7
350
63
  3
C8
350
64
  3
C9
350
65
  3
D0
350
66
  3
D1
350
67
  3
D2
350
68
  0
LAYOUT
  5
1E
102
{ACAD_REACTORS
330
1A
102
}
330
1A
100
AcDbPlotSettings
  1

  2
none_device
  4

  6

 40
0.0
 41
0.0
 42
0.0
 43
0.0
 44
0.0
 45
0.0
 46
0.0
 47
0.0
 48
0.0
 49
0.0
140
0.0
141
0.0
142
1.0
143
1.0
 70
   688
 72
     0
 73
     0
 74
     5
  7

 75
    16
147
1.0
148
0.0
149
0.0
100
AcDbLayout
  1
Layout1
 70
     1
 71
     1
 10
0.0
 20
0.0
 11
12.0
 21
9.0
 12
0.0
 22
0.0
 32
0.0
 14
1.0000000000E+20
 24
1.0000000000E+20
 34
1.0000000000E+20
 15
-1.0000000000E+20
 25
-1.0000000000E+20
 35
-1.0000000000E+20
146
0.0
 13
0.0
 23
0.0
 33
0.0
 16
1.0
 26
0.0
 36
0.0
 17
0.0
 27
1.0
 37
0.0
 76
     0
330
1B
  0
LAYOUT
  5
26
102
{ACAD_REACTORS
330
1A
102
}
330
1A
100
AcDbPlotSettings
  1

  2
none_device
  4

  6

 40
0.0
 41
0.0
 42
0.0
 43
0.0
 44
0.0
 45
0.0
 46
0.0
 47
0.0
 48
0.0
 49
0.0
140
0.0
141
0.0
142
1.0
143
1.0
 70
   688
 72
     0
 73
     0
 74
     5
  7

 75
    16
147
1.0
148
0.0
149
0.0
100
AcDbLayout
  1
Layout2
 70
     1
 71
     2
 10
0.0
 20
0.0
 11
0.0
 21
0.0
 12
0.0
 22
0.0
 32
0.0
 14
0.0
 24
0.0
 34
0.0
 15
0.0
 25
0.0
 35
0.0
146
0.0
 13
0.0
 23
0.0
 33
0.0
 16
1.0
 26
0.0
 36
0.0
 17
0.0
 27
1.0
 37
0.0
 76
     0
330
23
  0
LAYOUT
  5
22
102
{ACAD_REACTORS
330
1A
102
}
330
1A
100
AcDbPlotSettings
  1

  2
none_device
  4
ANSI_A_(11.00_x_8.50_Inches)
  6

 40
6.35
 41
19.05
 42
6.35000508
 43
19.05000254
 44
279.4
 45
215.9
 46
209.8646380378
 47
67.2944275002
 48
0.0
 49
0.0
140
0.0
141
0.0
142
3.3462389258
143
1.0
 70
  1696
 72
     0
 73
     0
 74
     0
  7

 75
     0
147
0.5913241897
148
-39.4088153714
149
0.0
100
AcDbLayout
  1
Model
 70
     1
 71
     0
 10
0.0
 20
0.0
 11
12.0
 21
9.0
 12
0.0
 22
0.0
 32
0.0
 14
-2.5274308296
 24
-0.3593734559
 34
0.0
 15
0.7269691823
 25
0.8677729213
 35
0.0
146
0.0
 13
0.0
 23
0.0
 33
0.0
 16
1.0
 26
0.0
 36
0.0
 17
0.0
 27
1.0
 37
0.0
 76
     0
330
1F
331
29
  0
MLINESTYLE
  5
18
102
{ACAD_REACTORS
330
17
102
}
330
17
100
AcDbMlineStyle
  2
Standard
 70
     0
  3

 62
   256
 51
90.0
 52
90.0
 71
     2
 49
0.5
 62
   256
  6
BYLAYER
 49
-0.5
 62
   256
  6
BYLAYER
  0
ACDBPLACEHOLDER
  5
F
102
{ACAD_REACTORS
330
E
102
}
330
E
  0
SCALE
  5
48
102
{ACAD_REACTORS
330
47
102
}
330
47
100
AcDbScale
 70
     0
300
1:1
140
1.0
141
1.0
290
     1
  0
SCALE
  5
49
102
{ACAD_REACTORS
330
47
102
}
330
47
100
AcDbScale
 70
     0
300
1:2
140
1.0
141
2.0
290
     0
  0
SCALE
  5
4A
102
{ACAD_REACTORS
330
47
102
}
330
47
100
AcDbScale
 70
     0
300
1:4
140
1.0
141
4.0
290
     0
  0
SCALE
  5
4B
102
{ACAD_REACTORS
330
47
102
}
330
47
100
AcDbScale
 70
     0
300
1:5
140
1.0
141
5.0
290
     0
  0
SCALE
  5
4C
102
{ACAD_REACTORS
330
47
102
}
330
47
100
AcDbScale
 70
     0
300
1:8
140
1.0
141
8.0
290
     0
  0
SCALE
  5
4D
102
{ACAD_REACTORS
330
47
102
}
330
47
100
AcDbScale
 70
     0
300
1:10
140
1.0
141
10.0
290
     0
  0
SCALE
  5
4E
102
{ACAD_REACTORS
330
47
102
}
330
47
100
AcDbScale
 70
     0
300
1:16
140
1.0
141
16.0
290
     0
  0
SCALE
  5
4F
102
{ACAD_REACTORS
330
47
102
}
330
47
100
AcDbScale
 70
     0
300
1:20
140
1.0
141
20.0
290
     0
  0
SCALE
  5
50
102
{ACAD_REACTORS
330
47
102
}
330
47
100
AcDbScale
 70
     0
300
1:30
140
1.0
141
30.0
290
     0
  0
SCALE
  5
51
102
{ACAD_REACTORS
330
47
102
}
330
47
100
AcDbScale
 70
     0
300
1:40
140
1.0
141
40.0
290
     0
  0
SCALE
  5
52
102
{ACAD_REACTORS
330
47
102
}
330
47
100
AcDbScale
 70
     0
300
1:50
140
1.0
141
50.0
290
     0
  0
SCALE
  5
53
102
{ACAD_REACTORS
330
47
102
}
330
47
100
AcDbScale
 70
     0
300
1:100
140
1.0
141
100.0
290
     0
  0
SCALE
  5
54
102
{ACAD_REACTORS
330
47
102
}
330
47
100
AcDbScale
 70
     0
300
2:1
140
2.0
141
1.0
290
     0
  0
SCALE
  5
55
102
{ACAD_REACTORS
330
47
102
}
330
47
100
AcDbScale
 70
     0
300
4:1
140
4.0
141
1.0
290
     0
  0
SCALE
  5
56
102
{ACAD_REACTORS
330
47
102
}
330
47
100
AcDbScale
 70
     0
300
8:1
140
8.0
141
1.0
290
     0
  0
SCALE
  5
57
102
{ACAD_REACTORS
330
47
102
}
330
47
100
AcDbScale
 70
     0
300
10:1
140
10.0
141
1.0
290
     0
  0
SCALE
  5
58
102
{ACAD_REACTORS
330
47
102
}
330
47
100
AcDbScale
 70
     0
300
100:1
140
100.0
141
1.0
290
     0
  0
SCALE
  5
59
102
{ACAD_REACTORS
330
47
102
}
330
47
100
AcDbScale
 70
     0
300
1/128" = 1'-0"
140
0.0078125
141
12.0
290
     0
  0
SCALE
  5
5A
102
{ACAD_REACTORS
330
47
102
}
330
47
100
AcDbScale
 70
     0
300
1/64" = 1'-0"
140
0.015625
141
12.0
290
     0
  0
SCALE
  5
5B
102
{ACAD_REACTORS
330
47
102
}
330
47
100
AcDbScale
 70
     0
300
1/32" = 1'-0"
140
0.03125
141
12.0
290
     0
  0
SCALE
  5
5C
102
{ACAD_REACTORS
330
47
102
}
330
47
100
AcDbScale
 70
     0
300
1/16" = 1'-0"
140
0.0625
141
12.0
290
     0
  0
SCALE
  5
5D
102
{ACAD_REACTORS
330
47
102
}
330
47
100
AcDbScale
 70
     0
300
3/32" = 1'-0"
140
0.09375
141
12.0
290
     0
  0
SCALE
  5
5E
102
{ACAD_REACTORS
330
47
102
}
330
47
100
AcDbScale
 70
     0
300
1/8" = 1'-0"
140
0.125
141
12.0
290
     0
  0
SCALE
  5
5F
102
{ACAD_REACTORS
330
47
102
}
330
47
100
AcDbScale
 70
     0
300
3/16" = 1'-0"
140
0.1875
141
12.0
290
     0
  0
SCALE
  5
60
102
{ACAD_REACTORS
330
47
102
}
330
47
100
AcDbScale
 70
     0
300
1/4" = 1'-0"
140
0.25
141
12.0
290
     0
  0
SCALE
  5
61
102
{ACAD_REACTORS
330
47
102
}
330
47
100
AcDbScale
 70
     0
300
3/8" = 1'-0"
140
0.375
141
12.0
290
     0
  0
SCALE
  5
62
102
{ACAD_REACTORS
330
47
102
}
330
47
100
AcDbScale
 70
     0
300
1/2" = 1'-0"
140
0.5
141
12.0
290
     0
  0
SCALE
  5
63
102
{ACAD_REACTORS
330
47
102
}
330
47
100
AcDbScale
 70
     0
300
3/4" = 1'-0"
140
0.75
141
12.0
290
     0
  0
SCALE
  5
64
102
{ACAD_REACTORS
330
47
102
}
330
47
100
AcDbScale
 70
     0
300
1" = 1'-0"
140
1.0
141
12.0
290
     0
  0
SCALE
  5
65
102
{ACAD_REACTORS
330
47
102
}
330
47
100
AcDbScale
 70
     0
300
1-1/2" = 1'-0"
140
1.5
141
12.0
290
     0
  0
SCALE
  5
66
102
{ACAD_REACTORS
330
47
102
}
330
47
100
AcDbScale
 70
     0
300
3" = 1'-0"
140
3.0
141
12.0
290
     0
  0
SCALE
  5
67
102
{ACAD_REACTORS
330
47
102
}
330
47
100
AcDbScale
 70
     0
300
6" = 1'-0"
140
6.0
141
12.0
290
     0
  0
SCALE
  5
68
102
{ACAD_REACTORS
330
47
102
}
330
47
100
AcDbScale
 70
     0
300
1'-0" = 1'-0"
140
12.0
141
12.0
290
     0
  0
ENDSEC
  0
EOF
