  0
SECTION
  2
HEADER
  9
$ACADVER
  1
AC1015
  9
$ACADMAINTVER
 70
     6
  9
$DWGCODEPAGE
  3
ANSI_1252
  9
$INSBASE
 10
0.0
 20
0.0
 30
0.0
  9
$EXTMIN
 10
-0.0064025279
 20
-0.2762895663
 30
0.0
  9
$EXTMAX
 10
3.5036358826
 20
0.2496655911
 30
0.0
  9
$LIMMIN
 10
0.0
 20
0.0
  9
$LIMMAX
 10
12.0
 20
9.0
  9
$ORTHOMODE
 70
     0
  9
$REGENMODE
 70
     1
  9
$FILLMODE
 70
     1
  9
$QTEXTMODE
 70
     0
  9
$MIRRTEXT
 70
     1
  9
$LTSCALE
 40
1.0
  9
$ATTMODE
 70
     1
  9
$TEXTSIZE
 40
0.1377952756
  9
$TRACEWID
 40
0.05
  9
$TEXTSTYLE
  7
Standard
  9
$CLAYER
  8
0
  9
$CELTYPE
  6
ByLayer
  9
$CECOLOR
 62
   256
  9
$CELTSCALE
 40
1.0
  9
$DISPSILH
 70
     0
  9
$DIMSCALE
 40
1.0
  9
$DIMASZ
 40
0.2362204724
  9
$DIMEXO
 40
0.0
  9
$DIMDLI
 40
0.38
  9
$DIMRND
 40
0.0
  9
$DIMDLE
 40
0.0
  9
$DIMEXE
 40
0.0393700787
  9
$DIMTP
 40
0.0
  9
$DIMTM
 40
0.0
  9
$DIMTXT
 40
0.1377952756
  9
$DIMCEN
 40
0.09
  9
$DIMTSZ
 40
0.0
  9
$DIMTOL
 70
     0
  9
$DIMLIM
 70
     0
  9
$DIMTIH
 70
     1
  9
$DIMTOH
 70
     1
  9
$DIMSE1
 70
     0
  9
$DIMSE2
 70
     0
  9
$DIMTAD
 70
     1
  9
$DIMZIN
 70
     0
  9
$DIMBLK
  1

  9
$DIMASO
 70
     1
  9
$DIMSHO
 70
     1
  9
$DIMPOST
  1

  9
$DIMAPOST
  1

  9
$DIMALT
 70
     0
  9
$DIMALTD
 70
     2
  9
$DIMALTF
 40
25.4
  9
$DIMLFAC
 40
1.0
  9
$DIMTOFL
 70
     0
  9
$DIMTVP
 40
0.0
  9
$DIMTIX
 70
     0
  9
$DIMSOXD
 70
     0
  9
$DIMSAH
 70
     0
  9
$DIMBLK1
  1

  9
$DIMBLK2
  1

  9
$DIMSTYLE
  2
Standard
  9
$DIMCLRD
 70
     0
  9
$DIMCLRE
 70
     0
  9
$DIMCLRT
 70
     0
  9
$DIMTFAC
 40
1.0
  9
$DIMGAP
 40
0.06
  9
$DIMJUST
 70
     0
  9
$DIMSD1
 70
     0
  9
$DIMSD2
 70
     0
  9
$DIMTOLJ
 70
     1
  9
$DIMTZIN
 70
     0
  9
$DIMALTZ
 70
     0
  9
$DIMALTTZ
 70
     0
  9
$DIMUPT
 70
     0
  9
$DIMDEC
 70
     3
  9
$DIMTDEC
 70
     3
  9
$DIMALTU
 70
     2
  9
$DIMALTTD
 70
     2
  9
$DIMTXSTY
  7
Standard
  9
$DIMAUNIT
 70
     0
  9
$DIMADEC
 70
     2
  9
$DIMALTRND
 40
0.0
  9
$DIMAZIN
 70
     0
  9
$DIMDSEP
 70
    46
  9
$DIMATFIT
 70
     3
  9
$DIMFRAC
 70
     0
  9
$DIMLDRBLK
  1

  9
$DIMLUNIT
 70
     2
  9
$DIMLWD
 70
    -2
  9
$DIMLWE
 70
    -2
  9
$DIMTMOVE
 70
     0
  9
$LUNITS
 70
     2
  9
$LUPREC
 70
     3
  9
$SKETCHINC
 40
0.1
  9
$FILLETRAD
 40
0.5
  9
$AUNITS
 70
     0
  9
$AUPREC
 70
     2
  9
$MENU
  1
.
  9
$ELEVATION
 40
0.0
  9
$PELEVATION
 40
0.0
  9
$THICKNESS
 40
0.0
  9
$LIMCHECK
 70
     0
  9
$CHAMFERA
 40
0.0
  9
$CHAMFERB
 40
0.0
  9
$CHAMFERC
 40
0.0
  9
$CHAMFERD
 40
0.0
  9
$SKPOLY
 70
     0
  9
$TDCREATE
 40
2459467.528681528
  9
$TDUCREATE
 40
2459467.820348194
  9
$TDUPDATE
 40
2459467.528706725
  9
$TDUUPDATE
 40
2459467.820373391
  9
$TDINDWG
 40
0.0000000116
  9
$TDUSRTIMER
 40
0.0000000116
  9
$USRTIMER
 70
     1
  9
$ANGBASE
 50
0.0
  9
$ANGDIR
 70
     0
  9
$PDMODE
 70
     0
  9
$PDSIZE
 40
-1.0
  9
$PLINEWID
 40
0.0
  9
$SPLFRAME
 70
     0
  9
$SPLINETYPE
 70
     6
  9
$SPLINESEGS
 70
     8
  9
$HANDSEED
  5
215
  9
$SURFTAB1
 70
     6
  9
$SURFTAB2
 70
     6
  9
$SURFTYPE
 70
     6
  9
$SURFU
 70
     6
  9
$SURFV
 70
     6
  9
$UCSBASE
  2

  9
$UCSNAME
  2

  9
$UCSORG
 10
0.0
 20
0.0
 30
0.0
  9
$UCSXDIR
 10
1.0
 20
0.0
 30
0.0
  9
$UCSYDIR
 10
0.0
 20
1.0
 30
0.0
  9
$UCSORTHOREF
  2

  9
$UCSORTHOVIEW
 70
     0
  9
$UCSORGTOP
 10
0.0
 20
0.0
 30
0.0
  9
$UCSORGBOTTOM
 10
0.0
 20
0.0
 30
0.0
  9
$UCSORGLEFT
 10
0.0
 20
0.0
 30
0.0
  9
$UCSORGRIGHT
 10
0.0
 20
0.0
 30
0.0
  9
$UCSORGFRONT
 10
0.0
 20
0.0
 30
0.0
  9
$UCSORGBACK
 10
0.0
 20
0.0
 30
0.0
  9
$PUCSBASE
  2

  9
$PUCSNAME
  2

  9
$PUCSORG
 10
0.0
 20
0.0
 30
0.0
  9
$PUCSXDIR
 10
1.0
 20
0.0
 30
0.0
  9
$PUCSYDIR
 10
0.0
 20
1.0
 30
0.0
  9
$PUCSORTHOREF
  2

  9
$PUCSORTHOVIEW
 70
     0
  9
$PUCSORGTOP
 10
0.0
 20
0.0
 30
0.0
  9
$PUCSORGBOTTOM
 10
0.0
 20
0.0
 30
0.0
  9
$PUCSORGLEFT
 10
0.0
 20
0.0
 30
0.0
  9
$PUCSORGRIGHT
 10
0.0
 20
0.0
 30
0.0
  9
$PUCSORGFRONT
 10
0.0
 20
0.0
 30
0.0
  9
$PUCSORGBACK
 10
0.0
 20
0.0
 30
0.0
  9
$USERI1
 70
     0
  9
$USERI2
 70
     0
  9
$USERI3
 70
     0
  9
$USERI4
 70
     0
  9
$USERI5
 70
     0
  9
$USERR1
 40
0.0
  9
$USERR2
 40
0.0
  9
$USERR3
 40
0.0
  9
$USERR4
 40
0.0
  9
$USERR5
 40
0.0
  9
$WORLDVIEW
 70
     1
  9
$SHADEDGE
 70
     3
  9
$SHADEDIF
 70
    70
  9
$TILEMODE
 70
     1
  9
$MAXACTVP
 70
    64
  9
$PINSBASE
 10
0.0
 20
0.0
 30
0.0
  9
$PLIMCHECK
 70
     0
  9
$PEXTMIN
 10
1.0000000000E+20
 20
1.0000000000E+20
 30
1.0000000000E+20
  9
$PEXTMAX
 10
-1.0000000000E+20
 20
-1.0000000000E+20
 30
-1.0000000000E+20
  9
$PLIMMIN
 10
0.0
 20
0.0
  9
$PLIMMAX
 10
12.0
 20
9.0
  9
$UNITMODE
 70
     0
  9
$VISRETAIN
 70
     1
  9
$PLINEGEN
 70
     0
  9
$PSLTSCALE
 70
     1
  9
$TREEDEPTH
 70
  3020
  9
$CMLSTYLE
  2
Standard
  9
$CMLJUST
 70
     0
  9
$CMLSCALE
 40
1.0
  9
$PROXYGRAPHICS
 70
     1
  9
$MEASUREMENT
 70
     0
  9
$CELWEIGHT
370
    -1
  9
$ENDCAPS
280
     0
  9
$JOINSTYLE
280
     0
  9
$LWDISPLAY
290
     1
  9
$INSUNITS
 70
     1
  9
$HYPERLINKBASE
  1

  9
$STYLESHEET
  1

  9
$XEDIT
290
     1
  9
$CEPSNTYPE
380
     0
  9
$PSTYLEMODE
290
     1
  9
$FINGERPRINTGUID
  2
{349acf3d-4ab9-4bb2-8c88-9740bab97e1c}
  9
$VERSIONGUID
  2
{FAEB1C32-E019-11D5-929B-00C0DF256EC4}
  9
$EXTNAMES
290
     1
  9
$PSVPSCALE
 40
0.0
  9
$OLESTARTUP
290
     0
  0
ENDSEC
  0
SECTION
  2
CLASSES
  0
CLASS
  1
ACDBDICTIONARYWDFLT
  2
AcDbDictionaryWithDefault
  3
ObjectDBX Classes
 90
        0
280
     0
281
     0
  0
CLASS
  1
VISUALSTYLE
  2
AcDbVisualStyle
  3
ObjectDBX Classes
 90
     4095
280
     0
281
     0
  0
CLASS
  1
MATERIAL
  2
AcDbMaterial
  3
ObjectDBX Classes
 90
     1153
280
     0
281
     0
  0
CLASS
  1
SCALE
  2
AcDbScale
  3
ObjectDBX Classes
 90
     1153
280
     0
281
     0
  0
CLASS
  1
TABLESTYLE
  2
AcDbTableStyle
  3
ObjectDBX Classes
 90
     4095
280
     0
281
     0
  0
CLASS
  1
MLEADERSTYLE
  2
AcDbMLeaderStyle
  3
ACDB_MLEADERSTYLE_CLASS
 90
     4095
280
     0
281
     0
  0
CLASS
  1
SUN
  2
AcDbSun
  3
SCENEOE
 90
     1153
280
     0
281
     0
  0
CLASS
  1
ACDBPLACEHOLDER
  2
AcDbPlaceHolder
  3
ObjectDBX Classes
 90
        0
280
     0
281
     0
  0
CLASS
  1
LAYOUT
  2
AcDbLayout
  3
ObjectDBX Classes
 90
        0
280
     0
281
     0
  0
ENDSEC
  0
SECTION
  2
TABLES
  0
TABLE
  2
VPORT
  5
8
330
0
100
AcDbSymbolTable
 70
     1
  0
VPORT
  5
29
330
8
100
AcDbSymbolTableRecord
100
AcDbViewportTableRecord
  2
*Active
 70
     0
 10
0.0
 20
0.0
 11
1.0
 21
1.0
 12
1.7486166773
 22
-0.0133119876
 13
0.0
 23
0.0
 14
0.5
 24
0.5
 15
0.5
 25
0.5
 16
0.0
 26
0.0
 36
1.0
 17
0.0
 27
0.0
 37
0.0
 40
0.5364742606
 41
6.6736457677
 42
50.0
 43
0.0
 44
0.0
 50
0.0
 51
0.0
 71
     0
 72
   100
 73
     1
 74
     3
 75
     0
 76
     0
 77
     0
 78
     0
281
     0
 65
     1
110
0.0
120
0.0
130
0.0
111
1.0
121
0.0
131
0.0
112
0.0
122
1.0
132
0.0
 79
     0
146
0.0
  0
ENDTAB
  0
TABLE
  2
LTYPE
  5
5
330
0
100
AcDbSymbolTable
 70
     6
  0
LTYPE
  5
14
330
5
100
AcDbSymbolTableRecord
100
AcDbLinetypeTableRecord
  2
ByBlock
 70
     0
  3

 72
    65
 73
     0
 40
0.0
  0
LTYPE
  5
15
330
5
100
AcDbSymbolTableRecord
100
AcDbLinetypeTableRecord
  2
ByLayer
 70
     0
  3

 72
    65
 73
     0
 40
0.0
  0
LTYPE
  5
16
330
5
100
AcDbSymbolTableRecord
100
AcDbLinetypeTableRecord
  2
Continuous
 70
     0
  3
Solid line
 72
    65
 73
     0
 40
0.0
  0
LTYPE
  5
6E
330
5
100
AcDbSymbolTableRecord
100
AcDbLinetypeTableRecord
  2
HIDDEN
 70
     0
  3
Hidden __ __ __ __ __ __ __ __ __ __ __ __ __ __
 72
    65
 73
     2
 40
0.075
 49
0.05
 74
     0
 49
-0.025
 74
     0
  0
LTYPE
  5
6F
330
5
100
AcDbSymbolTableRecord
100
AcDbLinetypeTableRecord
  2
PHANTOM
 70
     0
  3
Phantom ______  __  __  ______  __  __  ______
 72
    65
 73
     6
 40
0.5
 49
0.25
 74
     0
 49
-0.05
 74
     0
 49
0.05
 74
     0
 49
-0.05
 74
     0
 49
0.05
 74
     0
 49
-0.05
 74
     0
  0
LTYPE
  5
70
330
5
100
AcDbSymbolTableRecord
100
AcDbLinetypeTableRecord
  2
CENTER
 70
     0
  3
Center ____ _ ____ _ ____ _ ____ _ ____ _ ____
 72
    65
 73
     4
 40
0.4
 49
0.25
 74
     0
 49
-0.05
 74
     0
 49
0.05
 74
     0
 49
-0.05
 74
     0
  0
LTYPE
  5
71
330
5
100
AcDbSymbolTableRecord
100
AcDbLinetypeTableRecord
  2
CENTERX2
 70
     0
  3
Center (2x) ________  __  ________  __  _____
 72
    65
 73
     4
 40
0.8
 49
0.5
 74
     0
 49
-0.1
 74
     0
 49
0.1
 74
     0
 49
-0.1
 74
     0
  0
LTYPE
  5
72
330
5
100
AcDbSymbolTableRecord
100
AcDbLinetypeTableRecord
  2
DOT2
 70
     0
  3
Dot (.5x) ........................................
 72
    65
 73
     2
 40
0.025
 49
0.0
 74
     0
 49
-0.025
 74
     0
  0
ENDTAB
  0
TABLE
  2
LAYER
  5
2
330
0
100
AcDbSymbolTable
 70
     1
  0
LAYER
  5
10
330
2
100
AcDbSymbolTableRecord
100
AcDbLayerTableRecord
  2
0
 70
     0
 62
     7
  6
Continuous
370
    -3
390
F
  0
ENDTAB
  0
TABLE
  2
STYLE
  5
3
330
0
100
AcDbSymbolTable
 70
     1
  0
STYLE
  5
11
330
3
100
AcDbSymbolTableRecord
100
AcDbTextStyleTableRecord
  2
Standard
 70
     0
 40
0.0
 41
1.0
 50
0.0
 71
     0
 42
0.1377952756
  3
txt
  4

  0
ENDTAB
  0
TABLE
  2
VIEW
  5
6
330
0
100
AcDbSymbolTable
 70
     0
  0
ENDTAB
  0
TABLE
  2
UCS
  5
7
330
0
100
AcDbSymbolTable
 70
     0
  0
ENDTAB
  0
TABLE
  2
APPID
  5
9
330
0
100
AcDbSymbolTable
 70
     1
  0
APPID
  5
12
330
9
100
AcDbSymbolTableRecord
100
AcDbRegAppTableRecord
  2
ACAD
 70
     0
  0
ENDTAB
  0
TABLE
  2
DIMSTYLE
  5
A
330
0
100
AcDbSymbolTable
 70
     1
100
AcDbDimStyleTable
  0
DIMSTYLE
105
27
330
A
100
AcDbSymbolTableRecord
100
AcDbDimStyleTableRecord
  2
Standard
 70
     0
178
     0
340
11
  0
ENDTAB
  0
TABLE
  2
BLOCK_RECORD
  5
1
330
0
100
AcDbSymbolTable
 70
     1
  0
BLOCK_RECORD
  5
1F
330
1
100
AcDbSymbolTableRecord
100
AcDbBlockTableRecord
  2
*Model_Space
340
22
  0
BLOCK_RECORD
  5
1B
330
1
100
AcDbSymbolTableRecord
100
AcDbBlockTableRecord
  2
*Paper_Space
340
1E
  0
BLOCK_RECORD
  5
23
330
1
100
AcDbSymbolTableRecord
100
AcDbBlockTableRecord
  2
*Paper_Space0
340
26
  0
ENDTAB
  0
ENDSEC
  0
SECTION
  2
BLOCKS
  0
BLOCK
  5
20
330
1F
100
AcDbEntity
  8
0
100
AcDbBlockBegin
  2
*Model_Space
 70
     0
 10
0.0
 20
0.0
 30
0.0
  3
*Model_Space
  1

  0
ENDBLK
  5
21
330
1F
100
AcDbEntity
  8
0
100
AcDbBlockEnd
  0
BLOCK
  5
1C
330
1B
100
AcDbEntity
 67
     1
  8
0
100
AcDbBlockBegin
  2
*Paper_Space
 70
     0
 10
0.0
 20
0.0
 30
0.0
  3
*Paper_Space
  1

  0
ENDBLK
  5
1D
330
1B
100
AcDbEntity
 67
     1
  8
0
100
AcDbBlockEnd
  0
BLOCK
  5
24
330
23
100
AcDbEntity
  8
0
100
AcDbBlockBegin
  2
*Paper_Space0
 70
     0
 10
0.0
 20
0.0
 30
0.0
  3
*Paper_Space0
  1

  0
ENDBLK
  5
25
330
23
100
AcDbEntity
  8
0
100
AcDbBlockEnd
  0
ENDSEC
  0
SECTION
  2
ENTITIES
  0
LWPOLYLINE
  5
E3
330
1F
100
AcDbEntity
  8
0
  6
Continuous
 62
     7
370
    25
100
AcDbPolyline
 90
       14
 70
   128
 43
0.0
 10
3.458995082
 20
-0.1234092779
 10
3.4590233109
 20
-0.1456170001
 10
3.4591077172
 20
-0.16667864
 10
3.459247462
 20
-0.1863848774
 10
3.4594411564
 20
-0.204539863
 10
3.4596868754
 20
-0.2209631644
 10
3.459982177
 20
-0.2354915593
 10
3.4603241263
 20
-0.2479806582
 10
3.4607093248
 20
-0.2583063386
 10
3.4611339444
 20
-0.2663659794
 10
3.4615937648
 20
-0.2720794802
 10
3.4620842163
 20
-0.2753900577
 10
3.4626004245
 20
-0.2762648099
 10
3.4627223851
 20
-0.2761198364
  0
LWPOLYLINE
  5
E4
330
1F
100
AcDbEntity
  8
0
  6
Continuous
 62
     7
370
    25
100
AcDbPolyline
 90
       22
 70
   128
 43
0.0
 10
3.4670218162
 20
0.2155184588
 10
3.467012259
 20
0.21553508
 10
3.4664850823
 20
0.2151871402
 10
3.4659399245
 20
0.2123994491
 10
3.4653822037
 20
0.207199712
 10
3.4648174627
 20
0.1996396064
 10
3.4642513141
 20
0.1897942678
 10
3.4636893847
 20
0.1777615437
 10
3.463137259
 20
0.1636610208
 10
3.4626004245
 20
0.1476328363
 10
3.4620842163
 20
0.1298362855
 10
3.4615937648
 20
0.1104482386
 10
3.4611339444
 20
0.0896613827
 10
3.4607093248
 20
0.0676823068
 10
3.4603241263
 20
0.044729449
 10
3.459982177
 20
0.0210309251
 10
3.4596868754
 20
-0.0031777385
 10
3.4594411564
 20
-0.027655945
 10
3.459247462
 20
-0.0521604192
 10
3.4591077172
 20
-0.0764476244
 10
3.4590233109
 20
-0.1002761837
 10
3.458995082
 20
-0.1234092779
  0
LWPOLYLINE
  5
EB
330
1F
100
AcDbEntity
  8
0
  6
Continuous
 62
     7
370
    25
100
AcDbPolyline
 90
       14
 70
   128
 43
0.0
 10
3.3756839709
 20
-0.1226807131
 10
3.3757121999
 20
-0.1448884353
 10
3.3757966062
 20
-0.1659500751
 10
3.3759363509
 20
-0.1856563126
 10
3.3761300454
 20
-0.2038112982
 10
3.3763757644
 20
-0.2202345995
 10
3.376671066
 20
-0.2347629945
 10
3.3770130152
 20
-0.2472520933
 10
3.3773982138
 20
-0.2575777737
 10
3.3778228333
 20
-0.2656374145
 10
3.3782826538
 20
-0.2713509154
 10
3.3787731052
 20
-0.2746614929
 10
3.3792893134
 20
-0.2755362451
 10
3.379411274
 20
-0.2753912716
  0
LWPOLYLINE
  5
EC
330
1F
100
AcDbEntity
  8
0
  6
Continuous
 62
     7
370
    25
100
AcDbPolyline
 90
       22
 70
   128
 43
0.0
 10
3.3837107051
 20
0.2162470237
 10
3.383701148
 20
0.2162636448
 10
3.3831739713
 20
0.215915705
 10
3.3826288135
 20
0.2131280139
 10
3.3820710926
 20
0.2079282769
 10
3.3815063516
 20
0.2003681712
 10
3.3809402031
 20
0.1905228327
 10
3.3803782736
 20
0.1784901086
 10
3.379826148
 20
0.1643895856
 10
3.3792893134
 20
0.1483614011
 10
3.3787731052
 20
0.1305648503
 10
3.3782826538
 20
0.1111768034
 10
3.3778228333
 20
0.0903899475
 10
3.3773982138
 20
0.0684108717
 10
3.3770130152
 20
0.0454580139
 10
3.376671066
 20
0.0217594899
 10
3.3763757644
 20
-0.0024491736
 10
3.3761300454
 20
-0.0269273802
 10
3.3759363509
 20
-0.0514318543
 10
3.3757966062
 20
-0.0757190596
 10
3.3757121999
 20
-0.0995476188
 10
3.3756839709
 20
-0.1226807131
  0
LWPOLYLINE
  5
F3
330
1F
100
AcDbEntity
  8
0
  6
Continuous
 62
     7
370
    25
100
AcDbPolyline
 90
       14
 70
   128
 43
0.0
 10
3.2923728599
 20
-0.1219521482
 10
3.2924010888
 20
-0.1441598704
 10
3.2924854951
 20
-0.1652215103
 10
3.2926252399
 20
-0.1849277477
 10
3.2928189343
 20
-0.2030827333
 10
3.2930646533
 20
-0.2195060347
 10
3.2933599549
 20
-0.2340344296
 10
3.2937019042
 20
-0.2465235284
 10
3.2940871027
 20
-0.2568492089
 10
3.2945117223
 20
-0.2649088497
 10
3.2949715427
 20
-0.2706223505
 10
3.2954619942
 20
-0.273932928
 10
3.2959782024
 20
-0.2748076802
 10
3.2961001629
 20
-0.2746627067
  0
LWPOLYLINE
  5
F4
330
1F
100
AcDbEntity
  8
0
  6
Continuous
 62
     7
370
    25
100
AcDbPolyline
 90
       22
 70
   128
 43
0.0
 10
3.3003995941
 20
0.2169755885
 10
3.3003900369
 20
0.2169922097
 10
3.2998628602
 20
0.2166442699
 10
3.2993177024
 20
0.2138565788
 10
3.2987599816
 20
0.2086568418
 10
3.2981952406
 20
0.2010967361
 10
3.297629092
 20
0.1912513975
 10
3.2970671626
 20
0.1792186734
 10
3.2965150369
 20
0.1651181505
 10
3.2959782024
 20
0.149089966
 10
3.2954619942
 20
0.1312934152
 10
3.2949715427
 20
0.1119053683
 10
3.2945117223
 20
0.0911185124
 10
3.2940871027
 20
0.0691394366
 10
3.2937019042
 20
0.0461865788
 10
3.2933599549
 20
0.0224880548
 10
3.2930646533
 20
-0.0017206087
 10
3.2928189343
 20
-0.0261988153
 10
3.2926252399
 20
-0.0507032894
 10
3.2924854951
 20
-0.0749904947
 10
3.2924010888
 20
-0.0988190539
 10
3.2923728599
 20
-0.1219521482
  0
LWPOLYLINE
  5
FB
330
1F
100
AcDbEntity
  8
0
  6
Continuous
 62
     7
370
    25
100
AcDbPolyline
 90
       14
 70
   128
 43
0.0
 10
3.2090617488
 20
-0.1212235833
 10
3.2090899778
 20
-0.1434313056
 10
3.2091743841
 20
-0.1644929454
 10
3.2093141288
 20
-0.1841991829
 10
3.2095078233
 20
-0.2023541685
 10
3.2097535423
 20
-0.2187774698
 10
3.2100488439
 20
-0.2333058647
 10
3.2103907931
 20
-0.2457949636
 10
3.2107759917
 20
-0.256120644
 10
3.2112006112
 20
-0.2641802848
 10
3.2116604317
 20
-0.2698937856
 10
3.2121508831
 20
-0.2732043632
 10
3.2126670913
 20
-0.2740791154
 10
3.2127890519
 20
-0.2739341419
  0
LWPOLYLINE
  5
FC
330
1F
100
AcDbEntity
  8
0
  6
Continuous
 62
     7
370
    25
100
AcDbPolyline
 90
       22
 70
   128
 43
0.0
 10
3.217088483
 20
0.2177041534
 10
3.2170789258
 20
0.2177207746
 10
3.2165517492
 20
0.2173728347
 10
3.2160065914
 20
0.2145851437
 10
3.2154488705
 20
0.2093854066
 10
3.2148841295
 20
0.2018253009
 10
3.214317981
 20
0.1919799624
 10
3.2137560515
 20
0.1799472383
 10
3.2132039259
 20
0.1658467153
 10
3.2126670913
 20
0.1498185308
 10
3.2121508831
 20
0.1320219801
 10
3.2116604317
 20
0.1126339332
 10
3.2112006112
 20
0.0918470772
 10
3.2107759917
 20
0.0698680014
 10
3.2103907931
 20
0.0469151436
 10
3.2100488439
 20
0.0232166197
 10
3.2097535423
 20
-0.0009920439
 10
3.2095078233
 20
-0.0254702504
 10
3.2093141288
 20
-0.0499747246
 10
3.2091743841
 20
-0.0742619298
 10
3.2090899778
 20
-0.0980904891
 10
3.2090617488
 20
-0.1212235833
  0
LWPOLYLINE
  5
103
330
1F
100
AcDbEntity
  8
0
  6
Continuous
 62
     7
370
    25
100
AcDbPolyline
 90
       14
 70
   128
 43
0.0
 10
3.1257506378
 20
-0.1204950185
 10
3.1257788667
 20
-0.1427027407
 10
3.125863273
 20
-0.1637643806
 10
3.1260030178
 20
-0.183470618
 10
3.1261967122
 20
-0.2016256036
 10
3.1264424312
 20
-0.2180489049
 10
3.1267377328
 20
-0.2325772999
 10
3.1270796821
 20
-0.2450663987
 10
3.1274648806
 20
-0.2553920792
 10
3.1278895002
 20
-0.26345172
 10
3.1283493206
 20
-0.2691652208
 10
3.1288397721
 20
-0.2724757983
 10
3.1293559803
 20
-0.2733505505
 10
3.1294779408
 20
-0.273205577
  0
LWPOLYLINE
  5
104
330
1F
100
AcDbEntity
  8
0
  6
Continuous
 62
     7
370
    25
100
AcDbPolyline
 90
       22
 70
   128
 43
0.0
 10
3.133777372
 20
0.2184327182
 10
3.1337678148
 20
0.2184493394
 10
3.1332406381
 20
0.2181013996
 10
3.1326954803
 20
0.2153137085
 10
3.1321377595
 20
0.2101139715
 10
3.1315730185
 20
0.2025538658
 10
3.1310068699
 20
0.1927085272
 10
3.1304449405
 20
0.1806758032
 10
3.1298928148
 20
0.1665752802
 10
3.1293559803
 20
0.1505470957
 10
3.1288397721
 20
0.1327505449
 10
3.1283493206
 20
0.113362498
 10
3.1278895002
 20
0.0925756421
 10
3.1274648806
 20
0.0705965663
 10
3.1270796821
 20
0.0476437085
 10
3.1267377328
 20
0.0239451845
 10
3.1264424312
 20
-0.000263479
 10
3.1261967122
 20
-0.0247416856
 10
3.1260030178
 20
-0.0492461597
 10
3.125863273
 20
-0.073533365
 10
3.1257788667
 20
-0.0973619242
 10
3.1257506378
 20
-0.1204950185
  0
LWPOLYLINE
  5
10B
330
1F
100
AcDbEntity
  8
0
  6
Continuous
 62
     7
370
    25
100
AcDbPolyline
 90
       14
 70
   128
 43
0.0
 10
3.0424395267
 20
-0.1197664536
 10
3.0424677557
 20
-0.1419741758
 10
3.042552162
 20
-0.1630358157
 10
3.0426919067
 20
-0.1827420531
 10
3.0428856012
 20
-0.2008970387
 10
3.0431313202
 20
-0.2173203401
 10
3.0434266218
 20
-0.231848735
 10
3.043768571
 20
-0.2443378339
 10
3.0441537696
 20
-0.2546635143
 10
3.0445783891
 20
-0.2627231551
 10
3.0450382096
 20
-0.2684366559
 10
3.045528661
 20
-0.2717472334
 10
3.0460448692
 20
-0.2726219856
 10
3.0461668298
 20
-0.2724770122
  0
LWPOLYLINE
  5
10C
330
1F
100
AcDbEntity
  8
0
  6
Continuous
 62
     7
370
    25
100
AcDbPolyline
 90
       22
 70
   128
 43
0.0
 10
3.0504662609
 20
0.2191612831
 10
3.0504567037
 20
0.2191779043
 10
3.0499295271
 20
0.2188299645
 10
3.0493843693
 20
0.2160422734
 10
3.0488266484
 20
0.2108425363
 10
3.0482619074
 20
0.2032824307
 10
3.0476957589
 20
0.1934370921
 10
3.0471338294
 20
0.181404368
 10
3.0465817038
 20
0.1673038451
 10
3.0460448692
 20
0.1512756605
 10
3.045528661
 20
0.1334791098
 10
3.0450382096
 20
0.1140910629
 10
3.0445783891
 20
0.093304207
 10
3.0441537696
 20
0.0713251311
 10
3.043768571
 20
0.0483722733
 10
3.0434266218
 20
0.0246737494
 10
3.0431313202
 20
0.0004650858
 10
3.0428856012
 20
-0.0240131207
 10
3.0426919067
 20
-0.0485175949
 10
3.042552162
 20
-0.0728048001
 10
3.0424677557
 20
-0.0966333594
 10
3.0424395267
 20
-0.1197664536
  0
LWPOLYLINE
  5
113
330
1F
100
AcDbEntity
  8
0
  6
Continuous
 62
     7
370
    25
100
AcDbPolyline
 90
       14
 70
   128
 43
0.0
 10
2.9591284157
 20
-0.1190378888
 10
2.9591566446
 20
-0.141245611
 10
2.9592410509
 20
-0.1623072508
 10
2.9593807957
 20
-0.1820134883
 10
2.9595744901
 20
-0.2001684739
 10
2.9598202091
 20
-0.2165917752
 10
2.9601155107
 20
-0.2311201702
 10
2.96045746
 20
-0.243609269
 10
2.9608426585
 20
-0.2539349494
 10
2.9612672781
 20
-0.2619945902
 10
2.9617270985
 20
-0.2677080911
 10
2.96221755
 20
-0.2710186686
 10
2.9627337582
 20
-0.2718934208
 10
2.9628557187
 20
-0.2717484473
  0
LWPOLYLINE
  5
114
330
1F
100
AcDbEntity
  8
0
  6
Continuous
 62
     7
370
    25
100
AcDbPolyline
 90
       22
 70
   128
 43
0.0
 10
2.9671551499
 20
0.219889848
 10
2.9671455927
 20
0.2199064691
 10
2.966618416
 20
0.2195585293
 10
2.9660732582
 20
0.2167708382
 10
2.9655155374
 20
0.2115711012
 10
2.9649507964
 20
0.2040109955
 10
2.9643846478
 20
0.1941656569
 10
2.9638227184
 20
0.1821329329
 10
2.9632705927
 20
0.1680324099
 10
2.9627337582
 20
0.1520042254
 10
2.96221755
 20
0.1342076746
 10
2.9617270985
 20
0.1148196277
 10
2.9612672781
 20
0.0940327718
 10
2.9608426585
 20
0.072053696
 10
2.96045746
 20
0.0491008382
 10
2.9601155107
 20
0.0254023142
 10
2.9598202091
 20
0.0011936507
 10
2.9595744901
 20
-0.0232845559
 10
2.9593807957
 20
-0.04778903
 10
2.9592410509
 20
-0.0720762353
 10
2.9591566446
 20
-0.0959047945
 10
2.9591284157
 20
-0.1190378888
  0
LWPOLYLINE
  5
11B
330
1F
100
AcDbEntity
  8
0
  6
Continuous
 62
     7
370
    25
100
AcDbPolyline
 90
       14
 70
   128
 43
0.0
 10
2.8758173046
 20
-0.1183093239
 10
2.8758455336
 20
-0.1405170461
 10
2.8759299399
 20
-0.161578686
 10
2.8760696846
 20
-0.1812849234
 10
2.8762633791
 20
-0.199439909
 10
2.8765090981
 20
-0.2158632104
 10
2.8768043997
 20
-0.2303916053
 10
2.8771463489
 20
-0.2428807041
 10
2.8775315475
 20
-0.2532063846
 10
2.877956167
 20
-0.2612660254
 10
2.8784159875
 20
-0.2669795262
 10
2.8789064389
 20
-0.2702901037
 10
2.8794226471
 20
-0.2711648559
 10
2.8795446077
 20
-0.2710198824
  0
LWPOLYLINE
  5
11C
330
1F
100
AcDbEntity
  8
0
  6
Continuous
 62
     7
370
    25
100
AcDbPolyline
 90
       22
 70
   128
 43
0.0
 10
2.8838440388
 20
0.2206184128
 10
2.8838344816
 20
0.220635034
 10
2.883307305
 20
0.2202870942
 10
2.8827621472
 20
0.2174994031
 10
2.8822044263
 20
0.212299666
 10
2.8816396853
 20
0.2047395604
 10
2.8810735368
 20
0.1948942218
 10
2.8805116073
 20
0.1828614977
 10
2.8799594817
 20
0.1687609748
 10
2.8794226471
 20
0.1527327903
 10
2.8789064389
 20
0.1349362395
 10
2.8784159875
 20
0.1155481926
 10
2.877956167
 20
0.0947613367
 10
2.8775315475
 20
0.0727822608
 10
2.8771463489
 20
0.049829403
 10
2.8768043997
 20
0.0261308791
 10
2.8765090981
 20
0.0019222155
 10
2.8762633791
 20
-0.022555991
 10
2.8760696846
 20
-0.0470604652
 10
2.8759299399
 20
-0.0713476704
 10
2.8758455336
 20
-0.0951762296
 10
2.8758173046
 20
-0.1183093239
  0
LWPOLYLINE
  5
123
330
1F
100
AcDbEntity
  8
0
  6
Continuous
 62
     7
370
    25
100
AcDbPolyline
 90
       14
 70
   128
 43
0.0
 10
2.7925061936
 20
-0.1175807591
 10
2.7925344225
 20
-0.1397884813
 10
2.7926188288
 20
-0.1608501211
 10
2.7927585736
 20
-0.1805563586
 10
2.792952268
 20
-0.1987113442
 10
2.793197987
 20
-0.2151346455
 10
2.7934932886
 20
-0.2296630405
 10
2.7938352379
 20
-0.2421521393
 10
2.7942204364
 20
-0.2524778197
 10
2.794645056
 20
-0.2605374605
 10
2.7951048764
 20
-0.2662509614
 10
2.7955953279
 20
-0.2695615389
 10
2.7961115361
 20
-0.2704362911
 10
2.7962334966
 20
-0.2702913176
  0
LWPOLYLINE
  5
124
330
1F
100
AcDbEntity
  8
0
  6
Continuous
 62
     7
370
    25
100
AcDbPolyline
 90
       22
 70
   128
 43
0.0
 10
2.8005329278
 20
0.2213469777
 10
2.8005233706
 20
0.2213635989
 10
2.7999961939
 20
0.221015659
 10
2.7994510361
 20
0.2182279679
 10
2.7988933153
 20
0.2130282309
 10
2.7983285743
 20
0.2054681252
 10
2.7977624257
 20
0.1956227867
 10
2.7972004963
 20
0.1835900626
 10
2.7966483706
 20
0.1694895396
 10
2.7961115361
 20
0.1534613551
 10
2.7955953279
 20
0.1356648044
 10
2.7951048764
 20
0.1162767574
 10
2.794645056
 20
0.0954899015
 10
2.7942204364
 20
0.0735108257
 10
2.7938352379
 20
0.0505579679
 10
2.7934932886
 20
0.0268594439
 10
2.793197987
 20
0.0026507804
 10
2.792952268
 20
-0.0218274261
 10
2.7927585736
 20
-0.0463319003
 10
2.7926188288
 20
-0.0706191056
 10
2.7925344225
 20
-0.0944476648
 10
2.7925061936
 20
-0.1175807591
  0
LWPOLYLINE
  5
12B
330
1F
100
AcDbEntity
  8
0
  6
Continuous
 62
     7
370
    25
100
AcDbPolyline
 90
       14
 70
   128
 43
0.0
 10
2.7091950825
 20
-0.1168521942
 10
2.7092233115
 20
-0.1390599164
 10
2.7093077178
 20
-0.1601215563
 10
2.7094474625
 20
-0.1798277937
 10
2.709641157
 20
-0.1979827793
 10
2.709886876
 20
-0.2144060807
 10
2.7101821776
 20
-0.2289344756
 10
2.7105241268
 20
-0.2414235744
 10
2.7109093254
 20
-0.2517492549
 10
2.7113339449
 20
-0.2598088957
 10
2.7117937654
 20
-0.2655223965
 10
2.7122842168
 20
-0.268832974
 10
2.712800425
 20
-0.2697077262
 10
2.7129223856
 20
-0.2695627527
  0
LWPOLYLINE
  5
12C
330
1F
100
AcDbEntity
  8
0
  6
Continuous
 62
     7
370
    25
100
AcDbPolyline
 90
       22
 70
   128
 43
0.0
 10
2.7172218167
 20
0.2220755425
 10
2.7172122595
 20
0.2220921637
 10
2.7166850829
 20
0.2217442239
 10
2.7161399251
 20
0.2189565328
 10
2.7155822042
 20
0.2137567958
 10
2.7150174632
 20
0.2061966901
 10
2.7144513147
 20
0.1963513515
 10
2.7138893852
 20
0.1843186274
 10
2.7133372596
 20
0.1702181045
 10
2.712800425
 20
0.15418992
 10
2.7122842168
 20
0.1363933692
 10
2.7117937654
 20
0.1170053223
 10
2.7113339449
 20
0.0962184664
 10
2.7109093254
 20
0.0742393906
 10
2.7105241268
 20
0.0512865328
 10
2.7101821776
 20
0.0275880088
 10
2.709886876
 20
0.0033793453
 10
2.709641157
 20
-0.0210988613
 10
2.7094474625
 20
-0.0456033354
 10
2.7093077178
 20
-0.0698905407
 10
2.7092233115
 20
-0.0937190999
 10
2.7091950825
 20
-0.1168521942
  0
LWPOLYLINE
  5
133
330
1F
100
AcDbEntity
  8
0
  6
Continuous
 62
     7
370
    25
100
AcDbPolyline
 90
       14
 70
   128
 43
0.0
 10
2.6258839715
 20
-0.1161236293
 10
2.6259122004
 20
-0.1383313516
 10
2.6259966067
 20
-0.1593929914
 10
2.6261363515
 20
-0.1790992289
 10
2.6263300459
 20
-0.1972542144
 10
2.6265757649
 20
-0.2136775158
 10
2.6268710665
 20
-0.2282059107
 10
2.6272130158
 20
-0.2406950096
 10
2.6275982143
 20
-0.25102069
 10
2.6280228339
 20
-0.2590803308
 10
2.6284826543
 20
-0.2647938316
 10
2.6289731058
 20
-0.2681044092
 10
2.6294893139
 20
-0.2689791614
 10
2.6296112745
 20
-0.2688341879
  0
LWPOLYLINE
  5
134
330
1F
100
AcDbEntity
  8
0
  6
Continuous
 62
     7
370
    25
100
AcDbPolyline
 90
       22
 70
   128
 43
0.0
 10
2.6339107057
 20
0.2228041074
 10
2.6339011485
 20
0.2228207286
 10
2.6333739718
 20
0.2224727888
 10
2.632828814
 20
0.2196850977
 10
2.6322710932
 20
0.2144853606
 10
2.6317063522
 20
0.206925255
 10
2.6311402036
 20
0.1970799164
 10
2.6305782742
 20
0.1850471923
 10
2.6300261485
 20
0.1709466693
 10
2.6294893139
 20
0.1549184848
 10
2.6289731058
 20
0.1371219341
 10
2.6284826543
 20
0.1177338872
 10
2.6280228339
 20
0.0969470312
 10
2.6275982143
 20
0.0749679554
 10
2.6272130158
 20
0.0520150976
 10
2.6268710665
 20
0.0283165737
 10
2.6265757649
 20
0.0041079101
 10
2.6263300459
 20
-0.0203702964
 10
2.6261363515
 20
-0.0448747706
 10
2.6259966067
 20
-0.0691619758
 10
2.6259122004
 20
-0.0929905351
 10
2.6258839715
 20
-0.1161236293
  0
LWPOLYLINE
  5
137
330
1F
100
AcDbEntity
  8
0
  6
Continuous
 62
     7
370
    25
100
AcDbPolyline
 90
       14
 70
   128
 43
0.0
 10
2.3736574044
 20
-0.1153758718
 10
2.3736860751
 20
-0.1379311539
 10
2.3737718024
 20
-0.159322417
 10
2.3739137342
 20
-0.1793370651
 10
2.37411046
 20
-0.1977761836
 10
2.3743600247
 20
-0.2144565162
 10
2.3746599478
 20
-0.2292122865
 10
2.3750072488
 20
-0.2418968448
 10
2.3753984758
 20
-0.2523841263
 10
2.3758297408
 20
-0.2605699038
 10
2.3762967576
 20
-0.2663728232
 10
2.3767948849
 20
-0.2697352126
 10
2.3773191719
 20
-0.270623655
 10
2.3774430412
 20
-0.2704764126
  0
LWPOLYLINE
  5
138
330
1F
100
AcDbEntity
  8
0
  6
Continuous
 62
     7
370
    25
100
AcDbPolyline
 90
       22
 70
   128
 43
0.0
 10
2.3818097602
 20
0.2288562218
 10
2.3818000535
 20
0.2288731031
 10
2.3812646263
 20
0.2285197179
 10
2.3807109365
 20
0.2256883983
 10
2.3801444871
 20
0.2204072832
 10
2.3795709077
 20
0.2127288588
 10
2.3789958987
 20
0.2027294367
 10
2.3784251748
 20
0.1905083956
 10
2.3778644082
 20
0.1761871938
 10
2.3773191719
 20
0.1599081616
 10
2.3767948849
 20
0.1418330876
 10
2.3762967576
 20
0.1221416099
 10
2.3758297408
 20
0.1010294312
 10
2.3753984758
 20
0.0787063739
 10
2.3750072488
 20
0.0553942946
 10
2.3746599478
 20
0.0313248791
 10
2.3743600247
 20
0.0067373401
 10
2.37411046
 20
-0.0181239603
 10
2.3739137342
 20
-0.0430119394
 10
2.3737718024
 20
-0.0676792493
 10
2.3736860751
 20
-0.0918807352
 10
2.3736574044
 20
-0.1153758718
  0
LWPOLYLINE
  5
140
330
1F
100
AcDbEntity
  8
0
  6
Continuous
 62
     7
370
    25
100
AcDbPolyline
 90
       14
 70
   128
 43
0.0
 10
2.5425728604
 20
-0.1153950645
 10
2.5426010894
 20
-0.1376027867
 10
2.5426854957
 20
-0.1586644265
 10
2.5428252404
 20
-0.178370664
 10
2.5430189348
 20
-0.1965256496
 10
2.5432646539
 20
-0.2129489509
 10
2.5435599555
 20
-0.2274773459
 10
2.5439019047
 20
-0.2399664447
 10
2.5442871033
 20
-0.2502921252
 10
2.5447117228
 20
-0.258351766
 10
2.5451715433
 20
-0.2640652668
 10
2.5456619947
 20
-0.2673758443
 10
2.5461782029
 20
-0.2682505965
 10
2.5463001635
 20
-0.268105623
  0
LWPOLYLINE
  5
141
330
1F
100
AcDbEntity
  8
0
  6
Continuous
 62
     7
370
    25
100
AcDbPolyline
 90
       22
 70
   128
 43
0.0
 10
2.5505995946
 20
0.2235326722
 10
2.5505900374
 20
0.2235492934
 10
2.5500628608
 20
0.2232013536
 10
2.549517703
 20
0.2204136625
 10
2.5489599821
 20
0.2152139255
 10
2.5483952411
 20
0.2076538198
 10
2.5478290926
 20
0.1978084812
 10
2.5472671631
 20
0.1857757572
 10
2.5467150375
 20
0.1716752342
 10
2.5461782029
 20
0.1556470497
 10
2.5456619947
 20
0.1378504989
 10
2.5451715433
 20
0.118462452
 10
2.5447117228
 20
0.0976755961
 10
2.5442871033
 20
0.0756965203
 10
2.5439019047
 20
0.0527436625
 10
2.5435599555
 20
0.0290451385
 10
2.5432646539
 20
0.004836475
 10
2.5430189348
 20
-0.0196417316
 10
2.5428252404
 20
-0.0441462057
 10
2.5426854957
 20
-0.068433411
 10
2.5426010894
 20
-0.0922619702
 10
2.5425728604
 20
-0.1153950645
  0
LWPOLYLINE
  5
148
330
1F
100
AcDbEntity
  8
0
  6
Continuous
 62
     7
370
    25
100
AcDbPolyline
 90
       14
 70
   128
 43
0.0
 10
2.4592617494
 20
-0.1146664996
 10
2.4592899783
 20
-0.1368742218
 10
2.4593743846
 20
-0.1579358617
 10
2.4595141294
 20
-0.1776420991
 10
2.4597078238
 20
-0.1957970847
 10
2.4599535428
 20
-0.2122203861
 10
2.4602488444
 20
-0.226748781
 10
2.4605907937
 20
-0.2392378799
 10
2.4609759922
 20
-0.2495635603
 10
2.4614006117
 20
-0.2576232011
 10
2.4618604322
 20
-0.2633367019
 10
2.4623508837
 20
-0.2666472794
 10
2.4628670918
 20
-0.2675220316
 10
2.4629890524
 20
-0.2673770581
  0
LWPOLYLINE
  5
149
330
1F
100
AcDbEntity
  8
0
  6
Continuous
 62
     7
370
    25
100
AcDbPolyline
 90
       22
 70
   128
 43
0.0
 10
2.4672884836
 20
0.2242612371
 10
2.4672789264
 20
0.2242778583
 10
2.4667517497
 20
0.2239299185
 10
2.4662065919
 20
0.2211422274
 10
2.4656488711
 20
0.2159424903
 10
2.4650841301
 20
0.2083823847
 10
2.4645179815
 20
0.1985370461
 10
2.463956052
 20
0.186504322
 10
2.4634039264
 20
0.1724037991
 10
2.4628670918
 20
0.1563756146
 10
2.4623508837
 20
0.1385790638
 10
2.4618604322
 20
0.1191910169
 10
2.4614006117
 20
0.098404161
 10
2.4609759922
 20
0.0764250851
 10
2.4605907937
 20
0.0534722273
 10
2.4602488444
 20
0.0297737034
 10
2.4599535428
 20
0.0055650398
 10
2.4597078238
 20
-0.0189131667
 10
2.4595141294
 20
-0.0434176409
 10
2.4593743846
 20
-0.0677048461
 10
2.4592899783
 20
-0.0915334054
 10
2.4592617494
 20
-0.1146664996
  0
LWPOLYLINE
  5
150
330
1F
100
AcDbEntity
  8
0
  6
Continuous
 62
     7
370
    25
100
AcDbPolyline
 90
       57
 70
   128
 43
0.0
 10
3.4944974457
 20
-0.1054914035
 10
3.494526176
 20
-0.0845156645
 10
3.4946120056
 20
-0.0628619012
 10
3.4947538551
 20
-0.0408024224
 10
3.4949499406
 20
-0.0186146387
 10
3.4951977963
 20
0.0034224256
 10
3.4954943053
 20
0.0250316416
 10
3.4958357388
 20
0.0459412609
 10
3.4962178031
 20
0.065888333
 10
3.4966356934
 20
0.0846220117
 10
3.4970841546
 20
0.1019067102
 10
3.497557547
 20
0.1175250635
 10
3.4980499174
 20
0.1312806616
 10
3.498555074
 20
0.1430005199
 10
3.4990666642
 20
0.1525372544
 10
3.4995782543
 20
0.1597709352
 10
3.5000834109
 20
0.1646105945
 10
3.5005757813
 20
0.1669953707
 10
3.5010491737
 20
0.166895274
 10
3.5014976349
 20
0.1643115631
 10
3.5019155252
 20
0.1592767297
 10
3.5022975895
 20
0.1518540897
 10
3.502639023
 20
0.1421369871
 10
3.502935532
 20
0.1302476202
 10
3.5031833877
 20
0.1163355046
 10
3.5033794733
 20
0.1005755932
 10
3.5035213227
 20
0.0831660761
 10
3.5036071523
 20
0.0643258881
 10
3.5036358826
 20
0.0442919554
 10
3.5036071523
 20
0.0233162164
 10
3.5035213227
 20
0.0016624531
 10
3.5033794733
 20
-0.0203970257
 10
3.5031833877
 20
-0.0425848094
 10
3.502935532
 20
-0.0646218737
 10
3.502639023
 20
-0.0862310897
 10
3.5022975895
 20
-0.107140709
 10
3.5019155252
 20
-0.1270877811
 10
3.5014976349
 20
-0.1458214598
 10
3.5010491737
 20
-0.1631061583
 10
3.5005757813
 20
-0.1787245116
 10
3.5000834109
 20
-0.1924801097
 10
3.4995782543
 20
-0.204199968
 10
3.4990666642
 20
-0.2137367025
 10
3.498555074
 20
-0.2209703833
 10
3.4980499174
 20
-0.2258100426
 10
3.497557547
 20
-0.2281948188
 10
3.4970841546
 20
-0.2280947221
 10
3.4966356934
 20
-0.2255110112
 10
3.4962178031
 20
-0.2204761778
 10
3.4958357388
 20
-0.2130535378
 10
3.4954943053
 20
-0.2033364352
 10
3.4951977963
 20
-0.1914470683
 10
3.4949499406
 20
-0.1775349527
 10
3.4947538551
 20
-0.1617750413
 10
3.4946120056
 20
-0.1443655242
 10
3.494526176
 20
-0.1255253362
 10
3.4944974457
 20
-0.1054914035
  0
LINE
  5
152
330
1F
100
AcDbEntity
  8
0
  6
Continuous
 62
     7
370
    25
100
AcDbLine
 10
3.4627223851
 20
-0.2761198364
 30
0.0
 11
3.4905838181
 21
-0.2283989932
 31
0.0
  0
LINE
  5
153
330
1F
100
AcDbEntity
  8
0
  6
Continuous
 62
     7
370
    25
100
AcDbLine
 10
3.4940444038
 20
0.1673176487
 30
0.0
 11
3.4670218162
 21
0.2155184588
 31
0.0
  0
LINE
  5
154
330
1F
100
AcDbEntity
  8
0
  6
Continuous
 62
     7
370
    25
100
AcDbLine
 10
3.4553265426
 20
-0.2762266183
 30
0.0
 11
3.4625246226
 21
-0.2762895663
 31
0.0
  0
LINE
  5
155
330
1F
100
AcDbEntity
  8
0
  6
Continuous
 62
     7
370
    25
100
AcDbLine
 10
3.4668270524
 20
0.2156916214
 30
0.0
 11
3.4596289724
 21
0.2157545694
 31
0.0
  0
LINE
  5
156
330
1F
100
AcDbEntity
  8
0
  6
Continuous
 62
     7
370
    25
100
AcDbLine
 10
3.45943121
 20
0.2155848395
 30
0.0
 11
3.431489668
 21
0.1677267864
 31
0.0
  0
LINE
  5
157
330
1F
100
AcDbEntity
  8
0
  6
Continuous
 62
     7
370
    25
100
AcDbLine
 10
3.4280314942
 20
-0.2277140558
 30
0.0
 11
3.4551317788
 21
-0.2760534558
 31
0.0
  0
LINE
  5
158
330
1F
100
AcDbEntity
  8
0
  6
Continuous
 62
     7
370
    25
100
AcDbLine
 10
3.379411274
 20
-0.2753912716
 30
0.0
 11
3.4072727071
 21
-0.2276704283
 31
0.0
  0
LINE
  5
159
330
1F
100
AcDbEntity
  8
0
  6
Continuous
 62
     7
370
    25
100
AcDbLine
 10
3.4107332928
 20
0.1680462136
 30
0.0
 11
3.3837107051
 21
0.2162470237
 31
0.0
  0
LINE
  5
15A
330
1F
100
AcDbEntity
  8
0
  6
Continuous
 62
     7
370
    25
100
AcDbLine
 10
3.3720154316
 20
-0.2754980535
 30
0.0
 11
3.3792135116
 21
-0.2755610015
 31
0.0
  0
LINE
  5
15B
330
1F
100
AcDbEntity
  8
0
  6
Continuous
 62
     7
370
    25
100
AcDbLine
 10
3.3835159413
 20
0.2164201863
 30
0.0
 11
3.3763178613
 21
0.2164831343
 31
0.0
  0
LINE
  5
15C
330
1F
100
AcDbEntity
  8
0
  6
Continuous
 62
     7
370
    25
100
AcDbLine
 10
3.3761200989
 20
0.2163134044
 30
0.0
 11
3.348178557
 21
0.1684553512
 31
0.0
  0
LINE
  5
15D
330
1F
100
AcDbEntity
  8
0
  6
Continuous
 62
     7
370
    25
100
AcDbLine
 10
3.3447203832
 20
-0.2269854909
 30
0.0
 11
3.3718206678
 21
-0.2753248909
 31
0.0
  0
LINE
  5
15E
330
1F
100
AcDbEntity
  8
0
  6
Continuous
 62
     7
370
    25
100
AcDbLine
 10
3.2961001629
 20
-0.2746627067
 30
0.0
 11
3.323961596
 21
-0.2269418635
 31
0.0
  0
LINE
  5
15F
330
1F
100
AcDbEntity
  8
0
  6
Continuous
 62
     7
370
    25
100
AcDbLine
 10
3.3274221817
 20
0.1687747784
 30
0.0
 11
3.3003995941
 21
0.2169755885
 31
0.0
  0
LINE
  5
160
330
1F
100
AcDbEntity
  8
0
  6
Continuous
 62
     7
370
    25
100
AcDbLine
 10
3.2887043205
 20
-0.2747694886
 30
0.0
 11
3.2959024005
 21
-0.2748324366
 31
0.0
  0
LINE
  5
161
330
1F
100
AcDbEntity
  8
0
  6
Continuous
 62
     7
370
    25
100
AcDbLine
 10
3.3002048303
 20
0.2171487511
 30
0.0
 11
3.2930067503
 21
0.2172116991
 31
0.0
  0
LINE
  5
162
330
1F
100
AcDbEntity
  8
0
  6
Continuous
 62
     7
370
    25
100
AcDbLine
 10
3.2928089879
 20
0.2170419692
 30
0.0
 11
3.2648674459
 21
0.1691839161
 31
0.0
  0
LINE
  5
163
330
1F
100
AcDbEntity
  8
0
  6
Continuous
 62
     7
370
    25
100
AcDbLine
 10
3.2614092721
 20
-0.2262569261
 30
0.0
 11
3.2885095567
 21
-0.274596326
 31
0.0
  0
LINE
  5
164
330
1F
100
AcDbEntity
  8
0
  6
Continuous
 62
     7
370
    25
100
AcDbLine
 10
3.2127890519
 20
-0.2739341419
 30
0.0
 11
3.240650485
 21
-0.2262132986
 31
0.0
  0
LINE
  5
165
330
1F
100
AcDbEntity
  8
0
  6
Continuous
 62
     7
370
    25
100
AcDbLine
 10
3.2441110707
 20
0.1695033433
 30
0.0
 11
3.217088483
 21
0.2177041534
 31
0.0
  0
LINE
  5
166
330
1F
100
AcDbEntity
  8
0
  6
Continuous
 62
     7
370
    25
100
AcDbLine
 10
3.2053932095
 20
-0.2740409238
 30
0.0
 11
3.2125912895
 21
-0.2741038718
 31
0.0
  0
LINE
  5
167
330
1F
100
AcDbEntity
  8
0
  6
Continuous
 62
     7
370
    25
100
AcDbLine
 10
3.2168937192
 20
0.217877316
 30
0.0
 11
3.2096956392
 21
0.217940264
 31
0.0
  0
LINE
  5
168
330
1F
100
AcDbEntity
  8
0
  6
Continuous
 62
     7
370
    25
100
AcDbLine
 10
3.2094978768
 20
0.2177705341
 30
0.0
 11
3.1815563349
 21
0.169912481
 31
0.0
  0
LINE
  5
169
330
1F
100
AcDbEntity
  8
0
  6
Continuous
 62
     7
370
    25
100
AcDbLine
 10
3.1780981611
 20
-0.2255283612
 30
0.0
 11
3.2051984457
 21
-0.2738677612
 31
0.0
  0
LINE
  5
16A
330
1F
100
AcDbEntity
  8
0
  6
Continuous
 62
     7
370
    25
100
AcDbLine
 10
3.1294779408
 20
-0.273205577
 30
0.0
 11
3.1573393739
 21
-0.2254847337
 31
0.0
  0
LINE
  5
16B
330
1F
100
AcDbEntity
  8
0
  6
Continuous
 62
     7
370
    25
100
AcDbLine
 10
3.1607999596
 20
0.1702319081
 30
0.0
 11
3.133777372
 21
0.2184327182
 31
0.0
  0
LINE
  5
16C
330
1F
100
AcDbEntity
  8
0
  6
Continuous
 62
     7
370
    25
100
AcDbLine
 10
3.1220820984
 20
-0.2733123589
 30
0.0
 11
3.1292801784
 21
-0.2733753069
 31
0.0
  0
LINE
  5
16D
330
1F
100
AcDbEntity
  8
0
  6
Continuous
 62
     7
370
    25
100
AcDbLine
 10
3.1335826082
 20
0.2186058808
 30
0.0
 11
3.1263845282
 21
0.2186688288
 31
0.0
  0
LINE
  5
16E
330
1F
100
AcDbEntity
  8
0
  6
Continuous
 62
     7
370
    25
100
AcDbLine
 10
3.1261867658
 20
0.2184990989
 30
0.0
 11
3.0982452238
 21
0.1706410458
 31
0.0
  0
LINE
  5
16F
330
1F
100
AcDbEntity
  8
0
  6
Continuous
 62
     7
370
    25
100
AcDbLine
 10
3.09478705
 20
-0.2247997964
 30
0.0
 11
3.1218873346
 21
-0.2731391963
 31
0.0
  0
LINE
  5
170
330
1F
100
AcDbEntity
  8
0
  6
Continuous
 62
     7
370
    25
100
AcDbLine
 10
3.0461668298
 20
-0.2724770122
 30
0.0
 11
3.0740282629
 21
-0.2247561689
 31
0.0
  0
LINE
  5
171
330
1F
100
AcDbEntity
  8
0
  6
Continuous
 62
     7
370
    25
100
AcDbLine
 10
3.0774888486
 20
0.170960473
 30
0.0
 11
3.0504662609
 21
0.2191612831
 31
0.0
  0
LINE
  5
172
330
1F
100
AcDbEntity
  8
0
  6
Continuous
 62
     7
370
    25
100
AcDbLine
 10
3.0387709874
 20
-0.2725837941
 30
0.0
 11
3.0459690674
 21
-0.2726467421
 31
0.0
  0
LINE
  5
173
330
1F
100
AcDbEntity
  8
0
  6
Continuous
 62
     7
370
    25
100
AcDbLine
 10
3.0502714971
 20
0.2193344457
 30
0.0
 11
3.0430734171
 21
0.2193973937
 31
0.0
  0
LINE
  5
174
330
1F
100
AcDbEntity
  8
0
  6
Continuous
 62
     7
370
    25
100
AcDbLine
 10
3.0428756547
 20
0.2192276638
 30
0.0
 11
3.0149341128
 21
0.1713696107
 31
0.0
  0
LINE
  5
175
330
1F
100
AcDbEntity
  8
0
  6
Continuous
 62
     7
370
    25
100
AcDbLine
 10
3.011475939
 20
-0.2240712315
 30
0.0
 11
3.0385762236
 21
-0.2724106315
 31
0.0
  0
LINE
  5
176
330
1F
100
AcDbEntity
  8
0
  6
Continuous
 62
     7
370
    25
100
AcDbLine
 10
2.9628557187
 20
-0.2717484473
 30
0.0
 11
2.9907171518
 21
-0.224027604
 31
0.0
  0
LINE
  5
177
330
1F
100
AcDbEntity
  8
0
  6
Continuous
 62
     7
370
    25
100
AcDbLine
 10
2.9941777375
 20
0.1716890379
 30
0.0
 11
2.9671551499
 21
0.219889848
 31
0.0
  0
LINE
  5
178
330
1F
100
AcDbEntity
  8
0
  6
Continuous
 62
     7
370
    25
100
AcDbLine
 10
2.9554598763
 20
-0.2718552292
 30
0.0
 11
2.9626579563
 21
-0.2719181772
 31
0.0
  0
LINE
  5
179
330
1F
100
AcDbEntity
  8
0
  6
Continuous
 62
     7
370
    25
100
AcDbLine
 10
2.9669603861
 20
0.2200630105
 30
0.0
 11
2.9597623061
 21
0.2201259586
 31
0.0
  0
LINE
  5
17A
330
1F
100
AcDbEntity
  8
0
  6
Continuous
 62
     7
370
    25
100
AcDbLine
 10
2.9595645437
 20
0.2199562286
 30
0.0
 11
2.9316230017
 21
0.1720981755
 31
0.0
  0
LINE
  5
17B
330
1F
100
AcDbEntity
  8
0
  6
Continuous
 62
     7
370
    25
100
AcDbLine
 10
2.9281648279
 20
-0.2233426666
 30
0.0
 11
2.9552651125
 21
-0.2716820666
 31
0.0
  0
LINE
  5
17C
330
1F
100
AcDbEntity
  8
0
  6
Continuous
 62
     7
370
    25
100
AcDbLine
 10
2.8795446077
 20
-0.2710198824
 30
0.0
 11
2.9074060408
 21
-0.2232990392
 31
0.0
  0
LINE
  5
17D
330
1F
100
AcDbEntity
  8
0
  6
Continuous
 62
     7
370
    25
100
AcDbLine
 10
2.9108666265
 20
0.1724176027
 30
0.0
 11
2.8838440388
 21
0.2206184128
 31
0.0
  0
LINE
  5
17E
330
1F
100
AcDbEntity
  8
0
  6
Continuous
 62
     7
370
    25
100
AcDbLine
 10
2.8721487653
 20
-0.2711266643
 30
0.0
 11
2.8793468453
 21
-0.2711896123
 31
0.0
  0
LINE
  5
17F
330
1F
100
AcDbEntity
  8
0
  6
Continuous
 62
     7
370
    25
100
AcDbLine
 10
2.883649275
 20
0.2207915754
 30
0.0
 11
2.876451195
 21
0.2208545234
 31
0.0
  0
LINE
  5
180
330
1F
100
AcDbEntity
  8
0
  6
Continuous
 62
     7
370
    25
100
AcDbLine
 10
2.8762534326
 20
0.2206847935
 30
0.0
 11
2.8483118907
 21
0.1728267404
 31
0.0
  0
LINE
  5
181
330
1F
100
AcDbEntity
  8
0
  6
Continuous
 62
     7
370
    25
100
AcDbLine
 10
2.8448537169
 20
-0.2226141018
 30
0.0
 11
2.8719540015
 21
-0.2709535017
 31
0.0
  0
LINE
  5
182
330
1F
100
AcDbEntity
  8
0
  6
Continuous
 62
     7
370
    25
100
AcDbLine
 10
2.7962334966
 20
-0.2702913176
 30
0.0
 11
2.8240949297
 21
-0.2225704743
 31
0.0
  0
LINE
  5
183
330
1F
100
AcDbEntity
  8
0
  6
Continuous
 62
     7
370
    25
100
AcDbLine
 10
2.8275555154
 20
0.1731461676
 30
0.0
 11
2.8005329278
 21
0.2213469777
 31
0.0
  0
LINE
  5
184
330
1F
100
AcDbEntity
  8
0
  6
Continuous
 62
     7
370
    25
100
AcDbLine
 10
2.7888376542
 20
-0.2703980995
 30
0.0
 11
2.7960357342
 21
-0.2704610475
 31
0.0
  0
LINE
  5
185
330
1F
100
AcDbEntity
  8
0
  6
Continuous
 62
     7
370
    25
100
AcDbLine
 10
2.800338164
 20
0.2215201403
 30
0.0
 11
2.793140084
 21
0.2215830883
 31
0.0
  0
LINE
  5
186
330
1F
100
AcDbEntity
  8
0
  6
Continuous
 62
     7
370
    25
100
AcDbLine
 10
2.7929423216
 20
0.2214133584
 30
0.0
 11
2.7650007796
 21
0.1735553052
 31
0.0
  0
LINE
  5
187
330
1F
100
AcDbEntity
  8
0
  6
Continuous
 62
     7
370
    25
100
AcDbLine
 10
2.7615426058
 20
-0.2218855369
 30
0.0
 11
2.7886428904
 21
-0.2702249369
 31
0.0
  0
LINE
  5
188
330
1F
100
AcDbEntity
  8
0
  6
Continuous
 62
     7
370
    25
100
AcDbLine
 10
2.7129223856
 20
-0.2695627527
 30
0.0
 11
2.7407838187
 21
-0.2218419094
 31
0.0
  0
LINE
  5
189
330
1F
100
AcDbEntity
  8
0
  6
Continuous
 62
     7
370
    25
100
AcDbLine
 10
2.7442444044
 20
0.1738747324
 30
0.0
 11
2.7172218167
 21
0.2220755425
 31
0.0
  0
LINE
  5
18A
330
1F
100
AcDbEntity
  8
0
  6
Continuous
 62
     7
370
    25
100
AcDbLine
 10
2.7055265432
 20
-0.2696695346
 30
0.0
 11
2.7127246232
 21
-0.2697324826
 31
0.0
  0
LINE
  5
18B
330
1F
100
AcDbEntity
  8
0
  6
Continuous
 62
     7
370
    25
100
AcDbLine
 10
2.7170270529
 20
0.2222487051
 30
0.0
 11
2.7098289729
 21
0.2223116531
 31
0.0
  0
LINE
  5
18C
330
1F
100
AcDbEntity
  8
0
  6
Continuous
 62
     7
370
    25
100
AcDbLine
 10
2.7096312105
 20
0.2221419232
 30
0.0
 11
2.6816896685
 21
0.1742838701
 31
0.0
  0
LINE
  5
18D
330
1F
100
AcDbEntity
  8
0
  6
Continuous
 62
     7
370
    25
100
AcDbLine
 10
2.6782314948
 20
-0.2211569721
 30
0.0
 11
2.7053317794
 21
-0.269496372
 31
0.0
  0
LINE
  5
18E
330
1F
100
AcDbEntity
  8
0
  6
Continuous
 62
     7
370
    25
100
AcDbLine
 10
2.6296112745
 20
-0.2688341879
 30
0.0
 11
2.6574727076
 21
-0.2211133446
 31
0.0
  0
LINE
  5
18F
330
1F
100
AcDbEntity
  8
0
  6
Continuous
 62
     7
370
    25
100
AcDbLine
 10
2.6609332933
 20
0.1746032973
 30
0.0
 11
2.6339107057
 21
0.2228041074
 31
0.0
  0
LINE
  5
190
330
1F
100
AcDbEntity
  8
0
  6
Continuous
 62
     7
370
    25
100
AcDbLine
 10
2.3774430412
 20
-0.2704764126
 30
0.0
 11
2.4075393745
 21
-0.21892765
 31
0.0
  0
LINE
  5
191
330
1F
100
AcDbEntity
  8
0
  6
Continuous
 62
     7
370
    25
100
AcDbLine
 10
2.4109999602
 20
0.1767889919
 30
0.0
 11
2.3818097602
 21
0.2288562218
 31
0.0
  0
LINE
  5
192
330
1F
100
AcDbEntity
  8
0
  6
Continuous
 62
     7
370
    25
100
AcDbLine
 10
2.6222154321
 20
-0.2689409698
 30
0.0
 11
2.6294135121
 21
-0.2690039178
 31
0.0
  0
LINE
  5
193
330
1F
100
AcDbEntity
  8
0
  6
Continuous
 62
     7
370
    25
100
AcDbLine
 10
2.6337159419
 20
0.22297727
 30
0.0
 11
2.6265178619
 21
0.223040218
 31
0.0
  0
LINE
  5
194
330
1F
100
AcDbEntity
  8
0
  6
Continuous
 62
     7
370
    25
100
AcDbLine
 10
2.6263200995
 20
0.2228704881
 30
0.0
 11
2.5983785575
 21
0.175012435
 31
0.0
  0
LINE
  5
195
330
1F
100
AcDbEntity
  8
0
  6
Continuous
 62
     7
370
    25
100
AcDbLine
 10
2.5949203837
 20
-0.2204284072
 30
0.0
 11
2.6220206683
 21
-0.2687678072
 31
0.0
  0
LINE
  5
196
330
1F
100
AcDbEntity
  8
0
  6
Continuous
 62
     7
370
    25
100
AcDbLine
 10
0.0178097844
 20
-0.2500153022
 30
0.0
 11
2.3772421838
 21
-0.2706487989
 31
0.0
  0
LINE
  5
197
330
1F
100
AcDbEntity
  8
0
  6
Continuous
 62
     7
370
    25
100
AcDbLine
 10
2.3816119483
 20
0.2290320944
 30
0.0
 11
0.0221795489
 21
0.2496655911
 31
0.0
  0
LINE
  5
198
330
1F
100
AcDbEntity
  8
0
  6
Continuous
 62
     7
370
    25
100
AcDbLine
 10
2.5463001635
 20
-0.268105623
 30
0.0
 11
2.5741615966
 21
-0.2203847797
 31
0.0
  0
LINE
  5
199
330
1F
100
AcDbEntity
  8
0
  6
Continuous
 62
     7
370
    25
100
AcDbLine
 10
2.5776221823
 20
0.1753318622
 30
0.0
 11
2.5505995946
 21
0.2235326722
 31
0.0
  0
LINE
  5
19A
330
1F
100
AcDbEntity
  8
0
  6
Continuous
 62
     7
370
    25
100
AcDbLine
 10
2.5389043211
 20
-0.2682124049
 30
0.0
 11
2.5461024011
 21
-0.2682753529
 31
0.0
  0
LINE
  5
19B
330
1F
100
AcDbEntity
  8
0
  6
Continuous
 62
     7
370
    25
100
AcDbLine
 10
2.5504048308
 20
0.2237058348
 30
0.0
 11
2.5432067508
 21
0.2237687828
 31
0.0
  0
LINE
  5
19C
330
1F
100
AcDbEntity
  8
0
  6
Continuous
 62
     7
370
    25
100
AcDbLine
 10
2.5430089884
 20
0.2235990529
 30
0.0
 11
2.5150674464
 21
0.1757409998
 31
0.0
  0
LINE
  5
19D
330
1F
100
AcDbEntity
  8
0
  6
Continuous
 62
     7
370
    25
100
AcDbLine
 10
2.5116092727
 20
-0.2196998424
 30
0.0
 11
2.5387095573
 21
-0.2680392423
 31
0.0
  0
LINE
  5
19E
330
1F
100
AcDbEntity
  8
0
  6
Continuous
 62
     7
370
    25
100
AcDbLine
 10
2.4629890524
 20
-0.2673770581
 30
0.0
 11
2.4908504855
 21
-0.2196562149
 31
0.0
  0
LINE
  5
19F
330
1F
100
AcDbEntity
  8
0
  6
Continuous
 62
     7
370
    25
100
AcDbLine
 10
2.4943110712
 20
0.176060427
 30
0.0
 11
2.4672884836
 21
0.2242612371
 31
0.0
  0
LINE
  5
1A0
330
1F
100
AcDbEntity
  8
0
  6
Continuous
 62
     7
370
    25
100
AcDbLine
 10
2.45559321
 20
-0.26748384
 30
0.0
 11
2.46279129
 21
-0.267546788
 31
0.0
  0
LINE
  5
1A1
330
1F
100
AcDbEntity
  8
0
  6
Continuous
 62
     7
370
    25
100
AcDbLine
 10
2.4670937198
 20
0.2244343997
 30
0.0
 11
2.4598956398
 21
0.2244973477
 31
0.0
  0
LINE
  5
1A2
330
1F
100
AcDbEntity
  8
0
  6
Continuous
 62
     7
370
    25
100
AcDbLine
 10
2.4596978774
 20
0.2243276178
 30
0.0
 11
2.4317563354
 21
0.1764695647
 31
0.0
  0
LINE
  5
1A3
330
1F
100
AcDbEntity
  8
0
  6
Continuous
 62
     7
370
    25
100
AcDbLine
 10
2.4282981616
 20
-0.2189712775
 30
0.0
 11
2.4553984462
 21
-0.2673106775
 31
0.0
  0
LINE
  5
1A4
330
1F
100
AcDbEntity
  8
0
  6
Continuous
 62
     7
370
    25
100
AcDbLine
 10
3.4905048602
 20
-0.2283983027
 30
0.0
 11
3.4973363713
 21
-0.228458045
 31
0.0
  0
LINE
  5
1A5
330
1F
100
AcDbEntity
  8
0
  6
Continuous
 62
     7
370
    25
100
AcDbLine
 10
3.500796957
 20
0.1672585969
 30
0.0
 11
3.4939654459
 21
0.1673183392
 31
0.0
  0
LINE
  5
1A6
330
1F
100
AcDbEntity
  8
0
  6
Continuous
 62
     7
370
    25
100
AcDbLine
 10
3.4071937491
 20
-0.2276697378
 30
0.0
 11
3.4281091912
 21
-0.2278526457
 31
0.0
  0
LINE
  5
1A7
330
1F
100
AcDbEntity
  8
0
  6
Continuous
 62
     7
370
    25
100
AcDbLine
 10
3.4315697769
 20
0.1678639962
 30
0.0
 11
3.4106543348
 21
0.1680469041
 31
0.0
  0
LINE
  5
1A8
330
1F
100
AcDbEntity
  8
0
  6
Continuous
 62
     7
370
    25
100
AcDbLine
 10
3.3238826381
 20
-0.226941173
 30
0.0
 11
3.3447980801
 21
-0.2271240808
 31
0.0
  0
LINE
  5
1A9
330
1F
100
AcDbEntity
  8
0
  6
Continuous
 62
     7
370
    25
100
AcDbLine
 10
3.3482586658
 20
0.1685925611
 30
0.0
 11
3.3273432238
 21
0.1687754689
 31
0.0
  0
LINE
  5
1AA
330
1F
100
AcDbEntity
  8
0
  6
Continuous
 62
     7
370
    25
100
AcDbLine
 10
3.240571527
 20
-0.2262126081
 30
0.0
 11
3.2614869691
 21
-0.2263955159
 31
0.0
  0
LINE
  5
1AB
330
1F
100
AcDbEntity
  8
0
  6
Continuous
 62
     7
370
    25
100
AcDbLine
 10
3.2649475548
 20
0.1693211259
 30
0.0
 11
3.2440321127
 21
0.1695040338
 31
0.0
  0
LINE
  5
1AC
330
1F
100
AcDbEntity
  8
0
  6
Continuous
 62
     7
370
    25
100
AcDbLine
 10
0.0220648895
 20
0.2496094898
 30
0.0
 11
0.0019045056
 21
0.2297896009
 31
0.0
  0
LINE
  5
1AD
330
1F
100
AcDbEntity
  8
0
  6
Continuous
 62
     7
370
    25
100
AcDbLine
 10
-0.0021145492
 20
-0.2297877641
 30
0.0
 11
0.0176961237
 21
-0.2499572043
 31
0.0
  0
LINE
  5
1AE
330
1F
100
AcDbEntity
  8
0
  6
Continuous
 62
     7
370
    25
100
AcDbLine
 10
3.157260416
 20
-0.2254840432
 30
0.0
 11
3.178175858
 21
-0.2256669511
 31
0.0
  0
LINE
  5
1AF
330
1F
100
AcDbEntity
  8
0
  6
Continuous
 62
     7
370
    25
100
AcDbLine
 10
3.1816364437
 20
0.1700496908
 30
0.0
 11
3.1607210017
 21
0.1702325986
 31
0.0
  0
LINE
  5
1B0
330
1F
100
AcDbEntity
  8
0
  6
Continuous
 62
     7
370
    25
100
AcDbLine
 10
3.0739493049
 20
-0.2247554784
 30
0.0
 11
3.094864747
 21
-0.2249383862
 31
0.0
  0
LINE
  5
1B1
330
1F
100
AcDbEntity
  8
0
  6
Continuous
 62
     7
370
    25
100
AcDbLine
 10
3.0983253327
 20
0.1707782557
 30
0.0
 11
3.0774098906
 21
0.1709611635
 31
0.0
  0
LINE
  5
1B2
330
1F
100
AcDbEntity
  8
0
  6
Continuous
 62
     7
370
    25
100
AcDbLine
 10
2.9906381939
 20
-0.2240269135
 30
0.0
 11
3.0115536359
 21
-0.2242098214
 31
0.0
  0
LINE
  5
1B3
330
1F
100
AcDbEntity
  8
0
  6
Continuous
 62
     7
370
    25
100
AcDbLine
 10
3.0150142216
 20
0.1715068205
 30
0.0
 11
2.9940987796
 21
0.1716897284
 31
0.0
  0
LINE
  5
1B4
330
1F
100
AcDbEntity
  8
0
  6
Continuous
 62
     7
370
    25
100
AcDbLine
 10
2.9073270828
 20
-0.2232983487
 30
0.0
 11
2.9282425249
 21
-0.2234812565
 31
0.0
  0
LINE
  5
1B5
330
1F
100
AcDbEntity
  8
0
  6
Continuous
 62
     7
370
    25
100
AcDbLine
 10
2.9317031106
 20
0.1722353854
 30
0.0
 11
2.9107876685
 21
0.1724182932
 31
0.0
  0
LINE
  5
1B6
330
1F
100
AcDbEntity
  8
0
  6
Continuous
 62
     7
370
    25
100
AcDbLine
 10
2.8240159718
 20
-0.2225697838
 30
0.0
 11
2.8449314138
 21
-0.2227526917
 31
0.0
  0
LINE
  5
1B7
330
1F
100
AcDbEntity
  8
0
  6
Continuous
 62
     7
370
    25
100
AcDbLine
 10
2.8483919995
 20
0.1729639502
 30
0.0
 11
2.8274765575
 21
0.1731468581
 31
0.0
  0
LINE
  5
1B8
330
1F
100
AcDbEntity
  8
0
  6
Continuous
 62
     7
370
    25
100
AcDbLine
 10
2.7407048607
 20
-0.2218412189
 30
0.0
 11
2.7616203028
 21
-0.2220241268
 31
0.0
  0
LINE
  5
1B9
330
1F
100
AcDbEntity
  8
0
  6
Continuous
 62
     7
370
    25
100
AcDbLine
 10
2.7650808885
 20
0.1736925151
 30
0.0
 11
2.7441654464
 21
0.1738754229
 31
0.0
  0
LINE
  5
1BA
330
1F
100
AcDbEntity
  8
0
  6
Continuous
 62
     7
370
    25
100
AcDbLine
 10
2.6573937497
 20
-0.2211126541
 30
0.0
 11
2.6783091917
 21
-0.2212955619
 31
0.0
  0
LINE
  5
1BB
330
1F
100
AcDbEntity
  8
0
  6
Continuous
 62
     7
370
    25
100
AcDbLine
 10
2.6817697774
 20
0.1744210799
 30
0.0
 11
2.6608543354
 21
0.1746039878
 31
0.0
  0
LINE
  5
1BC
330
1F
100
AcDbEntity
  8
0
  6
Continuous
 62
     7
370
    25
100
AcDbLine
 10
2.5740826386
 20
-0.2203840892
 30
0.0
 11
2.5949980807
 21
-0.2205669971
 31
0.0
  0
LINE
  5
1BD
330
1F
100
AcDbEntity
  8
0
  6
Continuous
 62
     7
370
    25
100
AcDbLine
 10
2.5984586664
 20
0.1751496448
 30
0.0
 11
2.5775432243
 21
0.1753325527
 31
0.0
  0
LINE
  5
1BE
330
1F
100
AcDbEntity
  8
0
  6
Continuous
 62
     7
370
    25
100
AcDbLine
 10
2.4907715276
 20
-0.2196555244
 30
0.0
 11
2.5116869696
 21
-0.2198384322
 31
0.0
  0
LINE
  5
1BF
330
1F
100
AcDbEntity
  8
0
  6
Continuous
 62
     7
370
    25
100
AcDbLine
 10
2.5151475553
 20
0.1758782097
 30
0.0
 11
2.4942321133
 21
0.1760611175
 31
0.0
  0
LINE
  5
1C0
330
1F
100
AcDbEntity
  8
0
  6
Continuous
 62
     7
370
    25
100
AcDbLine
 10
2.4074604165
 20
-0.2189269595
 30
0.0
 11
2.4283758586
 21
-0.2191098674
 31
0.0
  0
LINE
  5
1C1
330
1F
100
AcDbEntity
  8
0
  6
Continuous
 62
     7
370
    25
100
AcDbLine
 10
2.4318364443
 20
0.1766067745
 30
0.0
 11
2.4109210022
 21
0.1767896824
 31
0.0
  0
ARC
  5
1C2
330
1F
100
AcDbEntity
  8
0
  6
Continuous
 62
     7
370
    25
100
AcDbCircle
 10
6.8422641169
 20
-0.0464626632
 30
0.0
 40
3.355116437209996
100
AcDbArc
 50
176.3467578997
 51
181.0070734486
  0
ARC
  5
1C3
330
1F
100
AcDbEntity
  8
0
  6
Continuous
 62
     7
370
    25
100
AcDbCircle
 10
4.7622206177
 20
-0.1375221637
 30
0.0
 40
1.274958603449723
100
AcDbArc
 50
178.557722151
 51
184.0873783681
  0
ARC
  5
1C4
330
1F
100
AcDbEntity
  8
0
  6
Continuous
 62
     7
370
    25
100
AcDbCircle
 10
7.708709328
 20
-0.0520242885
 30
0.0
 40
4.257509763311924
100
AcDbArc
 50
176.3939643502
 51
180.9598669981
  0
ARC
  5
1C5
330
1F
100
AcDbEntity
  8
0
  6
Continuous
 62
     7
370
    25
100
AcDbCircle
 10
4.9194380625
 20
-0.1659438511
 30
0.0
 40
1.468259115866293
100
AcDbArc
 50
178.337486432
 51
184.3076140871
  0
ARC
  5
1C6
330
1F
100
AcDbEntity
  8
0
  6
Continuous
 62
     7
370
    25
100
AcDbCircle
 10
6.9420595118
 20
-0.0477224513
 30
0.0
 40
3.517174860852323
100
AcDbArc
 50
176.4880719355
 51
180.9312627967
  0
ARC
  5
1C7
330
1F
100
AcDbEntity
  8
0
  6
Continuous
 62
     7
370
    25
100
AcDbCircle
 10
4.8069755878
 20
-0.1361580801
 30
0.0
 40
1.381980213272871
100
AcDbArc
 50
178.7034030401
 51
183.7986187227
  0
ARC
  5
1C8
330
1F
100
AcDbEntity
  8
0
  6
Continuous
 62
     7
370
    25
100
AcDbCircle
 10
6.7589530058
 20
-0.0457340983
 30
0.0
 40
3.355116437209955
100
AcDbArc
 50
176.3467578997
 51
181.0070734486
  0
ARC
  5
1C9
330
1F
100
AcDbEntity
  8
0
  6
Continuous
 62
     7
370
    25
100
AcDbCircle
 10
4.6789095067
 20
-0.1367935989
 30
0.0
 40
1.274958603449878
100
AcDbArc
 50
178.557722151
 51
184.0873783681
  0
ARC
  5
1CA
330
1F
100
AcDbEntity
  8
0
  6
Continuous
 62
     7
370
    25
100
AcDbCircle
 10
7.6253982169
 20
-0.0512957236
 30
0.0
 40
4.25750976331192
100
AcDbArc
 50
176.3939643502
 51
180.9598669981
  0
ARC
  5
1CB
330
1F
100
AcDbEntity
  8
0
  6
Continuous
 62
     7
370
    25
100
AcDbCircle
 10
4.8361269514
 20
-0.1652152863
 30
0.0
 40
1.468259115866664
100
AcDbArc
 50
178.337486432
 51
184.3076140871
  0
ARC
  5
1CC
330
1F
100
AcDbEntity
  8
0
  6
Continuous
 62
     7
370
    25
100
AcDbCircle
 10
6.8587484007
 20
-0.0469938864
 30
0.0
 40
3.517174860852327
100
AcDbArc
 50
176.4880719355
 51
180.9312627967
  0
ARC
  5
1CD
330
1F
100
AcDbEntity
  8
0
  6
Continuous
 62
     7
370
    25
100
AcDbCircle
 10
4.7236644767
 20
-0.1354295153
 30
0.0
 40
1.381980213272869
100
AcDbArc
 50
178.7034030401
 51
183.7986187227
  0
ARC
  5
1CE
330
1F
100
AcDbEntity
  8
0
  6
Continuous
 62
     7
370
    25
100
AcDbCircle
 10
6.6756418948
 20
-0.0450055335
 30
0.0
 40
3.355116437209502
100
AcDbArc
 50
176.3467578997
 51
181.0070734486
  0
ARC
  5
1CF
330
1F
100
AcDbEntity
  8
0
  6
Continuous
 62
     7
370
    25
100
AcDbCircle
 10
4.5955983956
 20
-0.136065034
 30
0.0
 40
1.274958603449581
100
AcDbArc
 50
178.557722151
 51
184.0873783681
  0
ARC
  5
1D0
330
1F
100
AcDbEntity
  8
0
  6
Continuous
 62
     7
370
    25
100
AcDbCircle
 10
7.5420871059
 20
-0.0505671588
 30
0.0
 40
4.257509763311921
100
AcDbArc
 50
176.3939643502
 51
180.9598669981
  0
ARC
  5
1D1
330
1F
100
AcDbEntity
  8
0
  6
Continuous
 62
     7
370
    25
100
AcDbCircle
 10
4.7528158404
 20
-0.1644867214
 30
0.0
 40
1.468259115866296
100
AcDbArc
 50
178.337486432
 51
184.3076140871
  0
ARC
  5
1D2
330
1F
100
AcDbEntity
  8
0
  6
Continuous
 62
     7
370
    25
100
AcDbCircle
 10
6.7754372896
 20
-0.0462653216
 30
0.0
 40
3.517174860852143
100
AcDbArc
 50
176.4880719355
 51
180.9312627967
  0
ARC
  5
1D3
330
1F
100
AcDbEntity
  8
0
  6
Continuous
 62
     7
370
    25
100
AcDbCircle
 10
4.6403533657
 20
-0.1347009504
 30
0.0
 40
1.381980213273232
100
AcDbArc
 50
178.7034030401
 51
183.7986187227
  0
ARC
  5
1D4
330
1F
100
AcDbEntity
  8
0
  6
Continuous
 62
     7
370
    25
100
AcDbCircle
 10
6.5923307837
 20
-0.0442769686
 30
0.0
 40
3.355116437209955
100
AcDbArc
 50
176.3467578997
 51
181.0070734486
  0
ARC
  5
1D5
330
1F
100
AcDbEntity
  8
0
  6
Continuous
 62
     7
370
    25
100
AcDbCircle
 10
4.5122872845
 20
-0.1353364691
 30
0.0
 40
1.274958603449876
100
AcDbArc
 50
178.557722151
 51
184.0873783681
  0
ARC
  5
1D6
330
1F
100
AcDbEntity
  8
0
  6
Continuous
 62
     7
370
    25
100
AcDbCircle
 10
7.4587759948
 20
-0.0498385939
 30
0.0
 40
4.257509763311923
100
AcDbArc
 50
176.3939643502
 51
180.9598669981
  0
ARC
  5
1D7
330
1F
100
AcDbEntity
  8
0
  6
Continuous
 62
     7
370
    25
100
AcDbCircle
 10
4.6695047293
 20
-0.1637581566
 30
0.0
 40
1.468259115866664
100
AcDbArc
 50
178.337486432
 51
184.3076140871
  0
ARC
  5
1D8
330
1F
100
AcDbEntity
  8
0
  6
Continuous
 62
     7
370
    25
100
AcDbCircle
 10
6.6921261786
 20
-0.0455367567
 30
0.0
 40
3.517174860852323
100
AcDbArc
 50
176.4880719355
 51
180.9312627967
  0
ARC
  5
1D9
330
1F
100
AcDbEntity
  8
0
  6
Continuous
 62
     7
370
    25
100
AcDbCircle
 10
4.5570422546
 20
-0.1339723855
 30
0.0
 40
1.38198021327287
100
AcDbArc
 50
178.7034030401
 51
183.7986187227
  0
ARC
  5
1DA
330
1F
100
AcDbEntity
  8
0
  6
Continuous
 62
     7
370
    25
100
AcDbCircle
 10
6.5090196727
 20
-0.0435484038
 30
0.0
 40
3.355116437209501
100
AcDbArc
 50
176.3467578997
 51
181.0070734486
  0
ARC
  5
1DB
330
1F
100
AcDbEntity
  8
0
  6
Continuous
 62
     7
370
    25
100
AcDbCircle
 10
4.4289761735
 20
-0.1346079043
 30
0.0
 40
1.274958603449581
100
AcDbArc
 50
178.557722151
 51
184.0873783681
  0
ARC
  5
1DC
330
1F
100
AcDbEntity
  8
0
  6
Continuous
 62
     7
370
    25
100
AcDbCircle
 10
7.3754648838
 20
-0.049110029
 30
0.0
 40
4.257509763311994
100
AcDbArc
 50
176.3939643502
 51
180.9598669981
  0
ARC
  5
1DD
330
1F
100
AcDbEntity
  8
0
  6
Continuous
 62
     7
370
    25
100
AcDbCircle
 10
4.5861936183
 20
-0.1630295917
 30
0.0
 40
1.468259115866584
100
AcDbArc
 50
178.337486432
 51
184.3076140871
  0
ARC
  5
1DE
330
1F
100
AcDbEntity
  8
0
  6
Continuous
 62
     7
370
    25
100
AcDbCircle
 10
6.6088150675
 20
-0.0448081919
 30
0.0
 40
3.517174860851809
100
AcDbArc
 50
176.4880719355
 51
180.9312627967
  0
ARC
  5
1DF
330
1F
100
AcDbEntity
  8
0
  6
Continuous
 62
     7
370
    25
100
AcDbCircle
 10
4.4737311436
 20
-0.1332438207
 30
0.0
 40
1.381980213273039
100
AcDbArc
 50
178.7034030401
 51
183.7986187227
  0
ARC
  5
1E0
330
1F
100
AcDbEntity
  8
0
  6
Continuous
 62
     7
370
    25
100
AcDbCircle
 10
6.4257085616
 20
-0.0428198389
 30
0.0
 40
3.35511643720981
100
AcDbArc
 50
176.3467578997
 51
181.0070734486
  0
ARC
  5
1E1
330
1F
100
AcDbEntity
  8
0
  6
Continuous
 62
     7
370
    25
100
AcDbCircle
 10
4.3456650624
 20
-0.1338793394
 30
0.0
 40
1.274958603449483
100
AcDbArc
 50
178.557722151
 51
184.0873783681
  0
ARC
  5
1E2
330
1F
100
AcDbEntity
  8
0
  6
Continuous
 62
     7
370
    25
100
AcDbCircle
 10
7.2921537727
 20
-0.0483814642
 30
0.0
 40
4.257509763311769
100
AcDbArc
 50
176.3939643502
 51
180.9598669981
  0
ARC
  5
1E3
330
1F
100
AcDbEntity
  8
0
  6
Continuous
 62
     7
370
    25
100
AcDbCircle
 10
4.5028825072
 20
-0.1623010268
 30
0.0
 40
1.468259115866295
100
AcDbArc
 50
178.337486432
 51
184.3076140871
  0
ARC
  5
1E4
330
1F
100
AcDbEntity
  8
0
  6
Continuous
 62
     7
370
    25
100
AcDbCircle
 10
6.5255039565
 20
-0.044079627
 30
0.0
 40
3.517174860852144
100
AcDbArc
 50
176.4880719355
 51
180.9312627967
  0
ARC
  5
1E5
330
1F
100
AcDbEntity
  8
0
  6
Continuous
 62
     7
370
    25
100
AcDbCircle
 10
4.3904200325
 20
-0.1325152558
 30
0.0
 40
1.381980213273231
100
AcDbArc
 50
178.7034030401
 51
183.7986187227
  0
ARC
  5
1E6
330
1F
100
AcDbEntity
  8
0
  6
Continuous
 62
     7
370
    25
100
AcDbCircle
 10
6.3423974506
 20
-0.042091274
 30
0.0
 40
3.355116437209955
100
AcDbArc
 50
176.3467578997
 51
181.0070734486
  0
ARC
  5
1E7
330
1F
100
AcDbEntity
  8
0
  6
Continuous
 62
     7
370
    25
100
AcDbCircle
 10
4.2623539514
 20
-0.1331507746
 30
0.0
 40
1.27495860344988
100
AcDbArc
 50
178.557722151
 51
184.0873783681
  0
ARC
  5
1E8
330
1F
100
AcDbEntity
  8
0
  6
Continuous
 62
     7
370
    25
100
AcDbCircle
 10
7.2088426616
 20
-0.0476528993
 30
0.0
 40
4.257509763312369
100
AcDbArc
 50
176.3939643502
 51
180.9598669981
  0
ARC
  5
1E9
330
1F
100
AcDbEntity
  8
0
  6
Continuous
 62
     7
370
    25
100
AcDbCircle
 10
4.4195713962
 20
-0.161572462
 30
0.0
 40
1.468259115866666
100
AcDbArc
 50
178.337486432
 51
184.3076140871
  0
ARC
  5
1EA
330
1F
100
AcDbEntity
  8
0
  6
Continuous
 62
     7
370
    25
100
AcDbCircle
 10
6.4421928454
 20
-0.0433510621
 30
0.0
 40
3.517174860851809
100
AcDbArc
 50
176.4880719355
 51
180.9312627967
  0
ARC
  5
1EB
330
1F
100
AcDbEntity
  8
0
  6
Continuous
 62
     7
370
    25
100
AcDbCircle
 10
4.3071089215
 20
-0.131786691
 30
0.0
 40
1.38198021327287
100
AcDbArc
 50
178.7034030401
 51
183.7986187227
  0
ARC
  5
1EC
330
1F
100
AcDbEntity
  8
0
  6
Continuous
 62
     7
370
    25
100
AcDbCircle
 10
6.2590863395
 20
-0.0413627092
 30
0.0
 40
3.355116437210225
100
AcDbArc
 50
176.3467578997
 51
181.0070734486
  0
ARC
  5
1ED
330
1F
100
AcDbEntity
  8
0
  6
Continuous
 62
     7
370
    25
100
AcDbCircle
 10
4.1790428403
 20
-0.1324222097
 30
0.0
 40
1.274958603449724
100
AcDbArc
 50
178.557722151
 51
184.0873783681
  0
ARC
  5
1EE
330
1F
100
AcDbEntity
  8
0
  6
Continuous
 62
     7
370
    25
100
AcDbCircle
 10
7.1255315506
 20
-0.0469243345
 30
0.0
 40
4.257509763311922
100
AcDbArc
 50
176.3939643502
 51
180.9598669981
  0
ARC
  5
1EF
330
1F
100
AcDbEntity
  8
0
  6
Continuous
 62
     7
370
    25
100
AcDbCircle
 10
4.3362602851
 20
-0.1608438971
 30
0.0
 40
1.468259115866374
100
AcDbArc
 50
178.337486432
 51
184.3076140871
  0
ARC
  5
1F0
330
1F
100
AcDbEntity
  8
0
  6
Continuous
 62
     7
370
    25
100
AcDbCircle
 10
6.3588817344
 20
-0.0426224973
 30
0.0
 40
3.517174860852142
100
AcDbArc
 50
176.4880719355
 51
180.9312627967
  0
ARC
  5
1F1
330
1F
100
AcDbEntity
  8
0
  6
Continuous
 62
     7
370
    25
100
AcDbCircle
 10
4.2237978104
 20
-0.1310581261
 30
0.0
 40
1.381980213273231
100
AcDbArc
 50
178.7034030401
 51
183.7986187227
  0
ARC
  5
1F2
330
1F
100
AcDbEntity
  8
0
  6
Continuous
 62
     7
370
    25
100
AcDbCircle
 10
6.1757752285
 20
-0.0406341443
 30
0.0
 40
3.355116437209956
100
AcDbArc
 50
176.3467578997
 51
181.0070734486
  0
ARC
  5
1F3
330
1F
100
AcDbEntity
  8
0
  6
Continuous
 62
     7
370
    25
100
AcDbCircle
 10
4.0957317293
 20
-0.1316936449
 30
0.0
 40
1.274958603449879
100
AcDbArc
 50
178.557722151
 51
184.0873783681
  0
ARC
  5
1F4
330
1F
100
AcDbEntity
  8
0
  6
Continuous
 62
     7
370
    25
100
AcDbCircle
 10
7.0422204395
 20
-0.0461957696
 30
0.0
 40
4.25750976331237
100
AcDbArc
 50
176.3939643502
 51
180.9598669981
  0
ARC
  5
1F5
330
1F
100
AcDbEntity
  8
0
  6
Continuous
 62
     7
370
    25
100
AcDbCircle
 10
4.2529491741
 20
-0.1601153323
 30
0.0
 40
1.468259115866664
100
AcDbArc
 50
178.337486432
 51
184.3076140871
  0
ARC
  5
1F6
330
1F
100
AcDbEntity
  8
0
  6
Continuous
 62
     7
370
    25
100
AcDbCircle
 10
6.2755706233
 20
-0.0418939324
 30
0.0
 40
3.51717486085181
100
AcDbArc
 50
176.4880719355
 51
180.9312627967
  0
ARC
  5
1F7
330
1F
100
AcDbEntity
  8
0
  6
Continuous
 62
     7
370
    25
100
AcDbCircle
 10
4.1404866994
 20
-0.1303295613
 30
0.0
 40
1.38198021327287
100
AcDbArc
 50
178.7034030401
 51
183.7986187227
  0
ARC
  5
1F8
330
1F
100
AcDbEntity
  8
0
  6
Continuous
 62
     7
370
    25
100
AcDbCircle
 10
6.0924641174
 20
-0.0399055795
 30
0.0
 40
3.355116437209955
100
AcDbArc
 50
176.3467578997
 51
181.0070734486
  0
ARC
  5
1F9
330
1F
100
AcDbEntity
  8
0
  6
Continuous
 62
     7
370
    25
100
AcDbCircle
 10
4.0124206182
 20
-0.13096508
 30
0.0
 40
1.274958603449879
100
AcDbArc
 50
178.557722151
 51
184.0873783681
  0
ARC
  5
1FA
330
1F
100
AcDbEntity
  8
0
  6
Continuous
 62
     7
370
    25
100
AcDbCircle
 10
6.9589093285
 20
-0.0454672048
 30
0.0
 40
4.257509763311536
100
AcDbArc
 50
176.3939643502
 51
180.9598669981
  0
ARC
  5
1FB
330
1F
100
AcDbEntity
  8
0
  6
Continuous
 62
     7
370
    25
100
AcDbCircle
 10
4.169638063
 20
-0.1593867674
 30
0.0
 40
1.468259115866295
100
AcDbArc
 50
178.337486432
 51
184.3076140871
  0
ARC
  5
1FC
330
1F
100
AcDbEntity
  8
0
  6
Continuous
 62
     7
370
    25
100
AcDbCircle
 10
6.1922595123
 20
-0.0411653676
 30
0.0
 40
3.517174860851808
100
AcDbArc
 50
176.4880719355
 51
180.9312627967
  0
ARC
  5
1FD
330
1F
100
AcDbEntity
  8
0
  6
Continuous
 62
     7
370
    25
100
AcDbCircle
 10
4.0571755883
 20
-0.1296009964
 30
0.0
 40
1.38198021327287
100
AcDbArc
 50
178.7034030401
 51
183.7986187227
  0
ARC
  5
1FE
330
1F
100
AcDbEntity
  8
0
  6
Continuous
 62
     7
370
    25
100
AcDbCircle
 10
6.0091530064
 20
-0.0391770146
 30
0.0
 40
3.355116437209813
100
AcDbArc
 50
176.3467578997
 51
181.0070734486
  0
ARC
  5
1FF
330
1F
100
AcDbEntity
  8
0
  6
Continuous
 62
     7
370
    25
100
AcDbCircle
 10
3.9291095072
 20
-0.1302365151
 30
0.0
 40
1.274958603449879
100
AcDbArc
 50
178.557722151
 51
184.0873783681
  0
ARC
  5
200
330
1F
100
AcDbEntity
  8
0
  6
Continuous
 62
     7
370
    25
100
AcDbCircle
 10
5.7592196732
 20
-0.03699132
 30
0.0
 40
3.355116437209734
100
AcDbArc
 50
176.3467578997
 51
181.0070734486
  0
ARC
  5
201
330
1F
100
AcDbEntity
  8
0
  6
Continuous
 62
     7
370
    25
100
AcDbCircle
 10
3.679176174
 20
-0.1280508206
 30
0.0
 40
1.274958603450417
100
AcDbArc
 50
178.557722151
 51
184.0873783681
  0
ARC
  5
202
330
1F
100
AcDbEntity
  8
0
  6
Continuous
 62
     7
370
    25
100
AcDbCircle
 10
6.8755982174
 20
-0.0447386399
 30
0.0
 40
4.257509763311922
100
AcDbArc
 50
176.3939643502
 51
180.9598669981
  0
ARC
  5
203
330
1F
100
AcDbEntity
  8
0
  6
Continuous
 62
     7
370
    25
100
AcDbCircle
 10
4.086326952
 20
-0.1586582025
 30
0.0
 40
1.468259115866662
100
AcDbArc
 50
178.337486432
 51
184.3076140871
  0
ARC
  5
204
330
1F
100
AcDbEntity
  8
0
  6
Continuous
 62
     7
370
    25
100
AcDbCircle
 10
6.1089484012
 20
-0.0404368027
 30
0.0
 40
3.517174860852323
100
AcDbArc
 50
176.4880719355
 51
180.9312627967
  0
ARC
  5
205
330
1F
100
AcDbEntity
  8
0
  6
Continuous
 62
     7
370
    25
100
AcDbCircle
 10
3.9738644773
 20
-0.1288724315
 30
0.0
 40
1.381980213272872
100
AcDbArc
 50
178.7034030401
 51
183.7986187227
  0
ARC
  5
206
330
1F
100
AcDbEntity
  8
0
  6
Continuous
 62
     7
370
    25
100
AcDbCircle
 10
4.5426908946
 20
-0.0397263331
 30
0.0
 40
4.529764951130214
100
AcDbArc
 50
176.3370647148
 51
182.6608450032
  0
ARC
  5
207
330
1F
100
AcDbEntity
  8
0
  6
Continuous
 62
     7
370
    25
100
AcDbCircle
 10
5.9258418953
 20
-0.0384484498
 30
0.0
 40
3.355116437209959
100
AcDbArc
 50
176.3467578997
 51
181.0070734486
  0
ARC
  5
208
330
1F
100
AcDbEntity
  8
0
  6
Continuous
 62
     7
370
    25
100
AcDbCircle
 10
3.8457983961
 20
-0.1295079503
 30
0.0
 40
1.274958603449881
100
AcDbArc
 50
178.557722151
 51
184.0873783681
  0
ARC
  5
209
330
1F
100
AcDbEntity
  8
0
  6
Continuous
 62
     7
370
    25
100
AcDbCircle
 10
6.7922871064
 20
-0.044010075
 30
0.0
 40
4.257509763312368
100
AcDbArc
 50
176.3939643502
 51
180.9598669981
  0
ARC
  5
20A
330
1F
100
AcDbEntity
  8
0
  6
Continuous
 62
     7
370
    25
100
AcDbCircle
 10
4.0030158409
 20
-0.1579296377
 30
0.0
 40
1.468259115866666
100
AcDbArc
 50
178.337486432
 51
184.3076140871
  0
ARC
  5
20B
330
1F
100
AcDbEntity
  8
0
  6
Continuous
 62
     7
370
    25
100
AcDbCircle
 10
6.0256372902
 20
-0.0397082378
 30
0.0
 40
3.51717486085181
100
AcDbArc
 50
176.4880719355
 51
180.9312627967
  0
ARC
  5
20C
330
1F
100
AcDbEntity
  8
0
  6
Continuous
 62
     7
370
    25
100
AcDbCircle
 10
3.8905533662
 20
-0.1281438667
 30
0.0
 40
1.381980213272872
100
AcDbArc
 50
178.7034030401
 51
183.7986187227
  0
ARC
  5
20D
330
1F
100
AcDbEntity
  8
0
  6
Continuous
 62
     7
370
    25
100
AcDbCircle
 10
5.8425307843
 20
-0.0377198849
 30
0.0
 40
3.355116437209811
100
AcDbArc
 50
176.3467578997
 51
181.0070734486
  0
ARC
  5
20E
330
1F
100
AcDbEntity
  8
0
  6
Continuous
 62
     7
370
    25
100
AcDbCircle
 10
3.7624872851
 20
-0.1287793854
 30
0.0
 40
1.274958603449485
100
AcDbArc
 50
178.557722151
 51
184.0873783681
  0
ARC
  5
20F
330
1F
100
AcDbEntity
  8
0
  6
Continuous
 62
     7
370
    25
100
AcDbCircle
 10
6.7089759953
 20
-0.0432815102
 30
0.0
 40
4.25750976331237
100
AcDbArc
 50
176.3939643502
 51
180.9598669981
  0
ARC
  5
210
330
1F
100
AcDbEntity
  8
0
  6
Continuous
 62
     7
370
    25
100
AcDbCircle
 10
3.9197047299
 20
-0.1572010728
 30
0.0
 40
1.468259115866377
100
AcDbArc
 50
178.337486432
 51
184.3076140871
  0
ARC
  5
211
330
1F
100
AcDbEntity
  8
0
  6
Continuous
 62
     7
370
    25
100
AcDbCircle
 10
5.9423261791
 20
-0.038979673
 30
0.0
 40
3.517174860851627
100
AcDbArc
 50
176.4880719355
 51
180.9312627967
  0
ARC
  5
212
330
1F
100
AcDbEntity
  8
0
  6
Continuous
 62
     7
370
    25
100
AcDbCircle
 10
3.8072422552
 20
-0.1274153018
 30
0.0
 40
1.381980213272871
100
AcDbArc
 50
178.7034030401
 51
183.7986187227
  0
ARC
  5
213
330
1F
100
AcDbEntity
  8
0
  6
Continuous
 62
     7
370
    25
100
AcDbCircle
 10
4.3017986227
 20
-0.0376197036
 30
0.0
 40
4.308201150641453
100
AcDbArc
 50
176.4413732878
 51
182.5565364301
  0
ENDSEC
  0
SECTION
  2
OBJECTS
  0
DICTIONARY
  5
C
330
0
100
AcDbDictionary
281
     1
  3
ACAD_GROUP
350
D
  3
ACAD_LAYOUT
350
1A
  3
ACAD_MLINESTYLE
350
17
  3
ACAD_PLOTSETTINGS
350
19
  3
ACAD_PLOTSTYLENAME
350
E
  3
ACAD_SCALELIST
350
47
  3
DWGPROPS
350
214
  0
DICTIONARY
  5
D
102
{ACAD_REACTORS
330
C
102
}
330
C
100
AcDbDictionary
281
     1
  0
DICTIONARY
  5
1A
102
{ACAD_REACTORS
330
C
102
}
330
C
100
AcDbDictionary
281
     1
  3
Layout1
350
1E
  3
Layout2
350
26
  3
Model
350
22
  0
DICTIONARY
  5
17
102
{ACAD_REACTORS
330
C
102
}
330
C
100
AcDbDictionary
281
     1
  3
Standard
350
18
  0
DICTIONARY
  5
19
102
{ACAD_REACTORS
330
C
102
}
330
C
100
AcDbDictionary
281
     1
  0
ACDBDICTIONARYWDFLT
  5
E
102
{ACAD_REACTORS
330
C
102
}
330
C
100
AcDbDictionary
281
     1
  3
Normal
350
F
100
AcDbDictionaryWithDefault
340
F
  0
DICTIONARY
  5
47
102
{ACAD_REACTORS
330
C
102
}
330
C
100
AcDbDictionary
281
     1
  3
A0
350
48
  3
A1
350
49
  3
A2
350
4A
  3
A3
350
4B
  3
A4
350
4C
  3
A5
350
4D
  3
A6
350
4E
  3
A7
350
4F
  3
A8
350
50
  3
A9
350
51
  3
B0
350
52
  3
B1
350
53
  3
B2
350
54
  3
B3
350
55
  3
B4
350
56
  3
B5
350
57
  3
B6
350
58
  3
B7
350
59
  3
B8
350
5A
  3
B9
350
5B
  3
C0
350
5C
  3
C1
350
5D
  3
C2
350
5E
  3
C3
350
5F
  3
C4
350
60
  3
C5
350
61
  3
C6
350
62
  3
C7
350
63
  3
C8
350
64
  3
C9
350
65
  3
D0
350
66
  3
D1
350
67
  3
D2
350
68
  0
XRECORD
  5
214
102
{ACAD_REACTORS
330
C
102
}
330
C
100
AcDbXrecord
280
     1
  1
DWGPROPS COOKIE
  2

  3

  4

  6

  7

  8
schristopher
  9

300
=
301
=
302
=
303
=
304
=
305
=
306
=
307
=
308
=
309
=
 40
0.0
 41
2459467.820348194
 42
2459467.820373391
  1

 90
        0
  0
LAYOUT
  5
1E
102
{ACAD_REACTORS
330
1A
102
}
330
1A
100
AcDbPlotSettings
  1

  2
none_device
  4

  6

 40
0.0
 41
0.0
 42
0.0
 43
0.0
 44
0.0
 45
0.0
 46
0.0
 47
0.0
 48
0.0
 49
0.0
140
0.0
141
0.0
142
1.0
143
1.0
 70
   688
 72
     0
 73
     0
 74
     5
  7

 75
    16
147
1.0
148
0.0
149
0.0
100
AcDbLayout
  1
Layout1
 70
     1
 71
     1
 10
0.0
 20
0.0
 11
12.0
 21
9.0
 12
0.0
 22
0.0
 32
0.0
 14
1.0000000000E+20
 24
1.0000000000E+20
 34
1.0000000000E+20
 15
-1.0000000000E+20
 25
-1.0000000000E+20
 35
-1.0000000000E+20
146
0.0
 13
0.0
 23
0.0
 33
0.0
 16
1.0
 26
0.0
 36
0.0
 17
0.0
 27
1.0
 37
0.0
 76
     0
330
1B
  0
LAYOUT
  5
26
102
{ACAD_REACTORS
330
1A
102
}
330
1A
100
AcDbPlotSettings
  1

  2
none_device
  4

  6

 40
0.0
 41
0.0
 42
0.0
 43
0.0
 44
0.0
 45
0.0
 46
0.0
 47
0.0
 48
0.0
 49
0.0
140
0.0
141
0.0
142
1.0
143
1.0
 70
   688
 72
     0
 73
     0
 74
     5
  7

 75
    16
147
1.0
148
0.0
149
0.0
100
AcDbLayout
  1
Layout2
 70
     1
 71
     2
 10
0.0
 20
0.0
 11
0.0
 21
0.0
 12
0.0
 22
0.0
 32
0.0
 14
0.0
 24
0.0
 34
0.0
 15
0.0
 25
0.0
 35
0.0
146
0.0
 13
0.0
 23
0.0
 33
0.0
 16
1.0
 26
0.0
 36
0.0
 17
0.0
 27
1.0
 37
0.0
 76
     0
330
23
  0
LAYOUT
  5
22
102
{ACAD_REACTORS
330
1A
102
}
330
1A
100
AcDbPlotSettings
  1

  2
none_device
  4
ANSI_A_(11.00_x_8.50_Inches)
  6

 40
6.35
 41
19.05
 42
6.35000508
 43
19.05000254
 44
279.4
 45
215.9
 46
-4.4484560265
 47
89.9490401416
 48
0.0
 49
0.0
140
0.0
141
0.0
142
3.1025301511
143
1.0
 70
  1696
 72
     0
 73
     0
 74
     0
  7

 75
     0
147
0.5913241897
148
-39.4088153714
149
0.0
100
AcDbLayout
  1
Model
 70
     1
 71
     0
 10
0.0
 20
0.0
 11
12.0
 21
9.0
 12
0.0
 22
0.0
 32
0.0
 14
-0.0064025279
 24
-0.2762895663
 34
0.0
 15
3.5036358826
 25
0.2496655911
 35
0.0
146
0.0
 13
0.0
 23
0.0
 33
0.0
 16
1.0
 26
0.0
 36
0.0
 17
0.0
 27
1.0
 37
0.0
 76
     0
330
1F
331
29
  0
MLINESTYLE
  5
18
102
{ACAD_REACTORS
330
17
102
}
330
17
100
AcDbMlineStyle
  2
Standard
 70
     0
  3

 62
   256
 51
90.0
 52
90.0
 71
     2
 49
0.5
 62
   256
  6
BYLAYER
 49
-0.5
 62
   256
  6
BYLAYER
  0
ACDBPLACEHOLDER
  5
F
102
{ACAD_REACTORS
330
E
102
}
330
E
  0
SCALE
  5
48
102
{ACAD_REACTORS
330
47
102
}
330
47
100
AcDbScale
 70
     0
300
1:1
140
1.0
141
1.0
290
     1
  0
SCALE
  5
49
102
{ACAD_REACTORS
330
47
102
}
330
47
100
AcDbScale
 70
     0
300
1:2
140
1.0
141
2.0
290
     0
  0
SCALE
  5
4A
102
{ACAD_REACTORS
330
47
102
}
330
47
100
AcDbScale
 70
     0
300
1:4
140
1.0
141
4.0
290
     0
  0
SCALE
  5
4B
102
{ACAD_REACTORS
330
47
102
}
330
47
100
AcDbScale
 70
     0
300
1:5
140
1.0
141
5.0
290
     0
  0
SCALE
  5
4C
102
{ACAD_REACTORS
330
47
102
}
330
47
100
AcDbScale
 70
     0
300
1:8
140
1.0
141
8.0
290
     0
  0
SCALE
  5
4D
102
{ACAD_REACTORS
330
47
102
}
330
47
100
AcDbScale
 70
     0
300
1:10
140
1.0
141
10.0
290
     0
  0
SCALE
  5
4E
102
{ACAD_REACTORS
330
47
102
}
330
47
100
AcDbScale
 70
     0
300
1:16
140
1.0
141
16.0
290
     0
  0
SCALE
  5
4F
102
{ACAD_REACTORS
330
47
102
}
330
47
100
AcDbScale
 70
     0
300
1:20
140
1.0
141
20.0
290
     0
  0
SCALE
  5
50
102
{ACAD_REACTORS
330
47
102
}
330
47
100
AcDbScale
 70
     0
300
1:30
140
1.0
141
30.0
290
     0
  0
SCALE
  5
51
102
{ACAD_REACTORS
330
47
102
}
330
47
100
AcDbScale
 70
     0
300
1:40
140
1.0
141
40.0
290
     0
  0
SCALE
  5
52
102
{ACAD_REACTORS
330
47
102
}
330
47
100
AcDbScale
 70
     0
300
1:50
140
1.0
141
50.0
290
     0
  0
SCALE
  5
53
102
{ACAD_REACTORS
330
47
102
}
330
47
100
AcDbScale
 70
     0
300
1:100
140
1.0
141
100.0
290
     0
  0
SCALE
  5
54
102
{ACAD_REACTORS
330
47
102
}
330
47
100
AcDbScale
 70
     0
300
2:1
140
2.0
141
1.0
290
     0
  0
SCALE
  5
55
102
{ACAD_REACTORS
330
47
102
}
330
47
100
AcDbScale
 70
     0
300
4:1
140
4.0
141
1.0
290
     0
  0
SCALE
  5
56
102
{ACAD_REACTORS
330
47
102
}
330
47
100
AcDbScale
 70
     0
300
8:1
140
8.0
141
1.0
290
     0
  0
SCALE
  5
57
102
{ACAD_REACTORS
330
47
102
}
330
47
100
AcDbScale
 70
     0
300
10:1
140
10.0
141
1.0
290
     0
  0
SCALE
  5
58
102
{ACAD_REACTORS
330
47
102
}
330
47
100
AcDbScale
 70
     0
300
100:1
140
100.0
141
1.0
290
     0
  0
SCALE
  5
59
102
{ACAD_REACTORS
330
47
102
}
330
47
100
AcDbScale
 70
     0
300
1/128" = 1'-0"
140
0.0078125
141
12.0
290
     0
  0
SCALE
  5
5A
102
{ACAD_REACTORS
330
47
102
}
330
47
100
AcDbScale
 70
     0
300
1/64" = 1'-0"
140
0.015625
141
12.0
290
     0
  0
SCALE
  5
5B
102
{ACAD_REACTORS
330
47
102
}
330
47
100
AcDbScale
 70
     0
300
1/32" = 1'-0"
140
0.03125
141
12.0
290
     0
  0
SCALE
  5
5C
102
{ACAD_REACTORS
330
47
102
}
330
47
100
AcDbScale
 70
     0
300
1/16" = 1'-0"
140
0.0625
141
12.0
290
     0
  0
SCALE
  5
5D
102
{ACAD_REACTORS
330
47
102
}
330
47
100
AcDbScale
 70
     0
300
3/32" = 1'-0"
140
0.09375
141
12.0
290
     0
  0
SCALE
  5
5E
102
{ACAD_REACTORS
330
47
102
}
330
47
100
AcDbScale
 70
     0
300
1/8" = 1'-0"
140
0.125
141
12.0
290
     0
  0
SCALE
  5
5F
102
{ACAD_REACTORS
330
47
102
}
330
47
100
AcDbScale
 70
     0
300
3/16" = 1'-0"
140
0.1875
141
12.0
290
     0
  0
SCALE
  5
60
102
{ACAD_REACTORS
330
47
102
}
330
47
100
AcDbScale
 70
     0
300
1/4" = 1'-0"
140
0.25
141
12.0
290
     0
  0
SCALE
  5
61
102
{ACAD_REACTORS
330
47
102
}
330
47
100
AcDbScale
 70
     0
300
3/8" = 1'-0"
140
0.375
141
12.0
290
     0
  0
SCALE
  5
62
102
{ACAD_REACTORS
330
47
102
}
330
47
100
AcDbScale
 70
     0
300
1/2" = 1'-0"
140
0.5
141
12.0
290
     0
  0
SCALE
  5
63
102
{ACAD_REACTORS
330
47
102
}
330
47
100
AcDbScale
 70
     0
300
3/4" = 1'-0"
140
0.75
141
12.0
290
     0
  0
SCALE
  5
64
102
{ACAD_REACTORS
330
47
102
}
330
47
100
AcDbScale
 70
     0
300
1" = 1'-0"
140
1.0
141
12.0
290
     0
  0
SCALE
  5
65
102
{ACAD_REACTORS
330
47
102
}
330
47
100
AcDbScale
 70
     0
300
1-1/2" = 1'-0"
140
1.5
141
12.0
290
     0
  0
SCALE
  5
66
102
{ACAD_REACTORS
330
47
102
}
330
47
100
AcDbScale
 70
     0
300
3" = 1'-0"
140
3.0
141
12.0
290
     0
  0
SCALE
  5
67
102
{ACAD_REACTORS
330
47
102
}
330
47
100
AcDbScale
 70
     0
300
6" = 1'-0"
140
6.0
141
12.0
290
     0
  0
SCALE
  5
68
102
{ACAD_REACTORS
330
47
102
}
330
47
100
AcDbScale
 70
     0
300
1'-0" = 1'-0"
140
12.0
141
12.0
290
     0
  0
ENDSEC
  0
EOF
