  0
SECTION
  2
HEADER
  9
$ACADVER
  1
AC1015
  9
$ACADMAINTVER
 70
     6
  9
$DWGCODEPAGE
  3
ANSI_1252
  9
$INSBASE
 10
0.0
 20
0.0
 30
0.0
  9
$EXTMIN
 10
-0.0632845505
 20
-0.4130928378
 30
0.0
  9
$EXTMAX
 10
2.7583239865
 20
0.1545123207
 30
0.0
  9
$LIMMIN
 10
0.0
 20
0.0
  9
$LIMMAX
 10
12.0
 20
9.0
  9
$ORTHOMODE
 70
     0
  9
$REGENMODE
 70
     1
  9
$FILLMODE
 70
     1
  9
$QTEXTMODE
 70
     0
  9
$MIRRTEXT
 70
     1
  9
$LTSCALE
 40
1.0
  9
$ATTMODE
 70
     1
  9
$TEXTSIZE
 40
0.1377952756
  9
$TRACEWID
 40
0.05
  9
$TEXTSTYLE
  7
Standard
  9
$CLAYER
  8
0
  9
$CELTYPE
  6
ByLayer
  9
$CECOLOR
 62
   256
  9
$CELTSCALE
 40
1.0
  9
$DISPSILH
 70
     0
  9
$DIMSCALE
 40
1.0
  9
$DIMASZ
 40
0.2362204724
  9
$DIMEXO
 40
0.0
  9
$DIMDLI
 40
0.38
  9
$DIMRND
 40
0.0
  9
$DIMDLE
 40
0.0
  9
$DIMEXE
 40
0.0393700787
  9
$DIMTP
 40
0.0
  9
$DIMTM
 40
0.0
  9
$DIMTXT
 40
0.1377952756
  9
$DIMCEN
 40
0.09
  9
$DIMTSZ
 40
0.0
  9
$DIMTOL
 70
     0
  9
$DIMLIM
 70
     0
  9
$DIMTIH
 70
     1
  9
$DIMTOH
 70
     1
  9
$DIMSE1
 70
     0
  9
$DIMSE2
 70
     0
  9
$DIMTAD
 70
     1
  9
$DIMZIN
 70
     0
  9
$DIMBLK
  1

  9
$DIMASO
 70
     1
  9
$DIMSHO
 70
     1
  9
$DIMPOST
  1

  9
$DIMAPOST
  1

  9
$DIMALT
 70
     0
  9
$DIMALTD
 70
     2
  9
$DIMALTF
 40
25.4
  9
$DIMLFAC
 40
1.0
  9
$DIMTOFL
 70
     0
  9
$DIMTVP
 40
0.0
  9
$DIMTIX
 70
     0
  9
$DIMSOXD
 70
     0
  9
$DIMSAH
 70
     0
  9
$DIMBLK1
  1

  9
$DIMBLK2
  1

  9
$DIMSTYLE
  2
Standard
  9
$DIMCLRD
 70
     0
  9
$DIMCLRE
 70
     0
  9
$DIMCLRT
 70
     0
  9
$DIMTFAC
 40
1.0
  9
$DIMGAP
 40
0.06
  9
$DIMJUST
 70
     0
  9
$DIMSD1
 70
     0
  9
$DIMSD2
 70
     0
  9
$DIMTOLJ
 70
     1
  9
$DIMTZIN
 70
     0
  9
$DIMALTZ
 70
     0
  9
$DIMALTTZ
 70
     0
  9
$DIMUPT
 70
     0
  9
$DIMDEC
 70
     3
  9
$DIMTDEC
 70
     3
  9
$DIMALTU
 70
     2
  9
$DIMALTTD
 70
     2
  9
$DIMTXSTY
  7
Standard
  9
$DIMAUNIT
 70
     0
  9
$DIMADEC
 70
     2
  9
$DIMALTRND
 40
0.0
  9
$DIMAZIN
 70
     0
  9
$DIMDSEP
 70
    46
  9
$DIMATFIT
 70
     3
  9
$DIMFRAC
 70
     0
  9
$DIMLDRBLK
  1

  9
$DIMLUNIT
 70
     2
  9
$DIMLWD
 70
    -2
  9
$DIMLWE
 70
    -2
  9
$DIMTMOVE
 70
     0
  9
$LUNITS
 70
     2
  9
$LUPREC
 70
     3
  9
$SKETCHINC
 40
0.1
  9
$FILLETRAD
 40
0.5
  9
$AUNITS
 70
     0
  9
$AUPREC
 70
     2
  9
$MENU
  1
.
  9
$ELEVATION
 40
0.0
  9
$PELEVATION
 40
0.0
  9
$THICKNESS
 40
0.0
  9
$LIMCHECK
 70
     0
  9
$CHAMFERA
 40
0.0
  9
$CHAMFERB
 40
0.0
  9
$CHAMFERC
 40
0.0
  9
$CHAMFERD
 40
0.0
  9
$SKPOLY
 70
     0
  9
$TDCREATE
 40
2459474.467297488
  9
$TDUCREATE
 40
2459474.758964155
  9
$TDUPDATE
 40
2459474.467323518
  9
$TDUUPDATE
 40
2459474.758990185
  9
$TDINDWG
 40
0.0000000116
  9
$TDUSRTIMER
 40
0.0000000116
  9
$USRTIMER
 70
     1
  9
$ANGBASE
 50
0.0
  9
$ANGDIR
 70
     0
  9
$PDMODE
 70
     0
  9
$PDSIZE
 40
-1.0
  9
$PLINEWID
 40
0.0
  9
$SPLFRAME
 70
     0
  9
$SPLINETYPE
 70
     6
  9
$SPLINESEGS
 70
     8
  9
$HANDSEED
  5
18D
  9
$SURFTAB1
 70
     6
  9
$SURFTAB2
 70
     6
  9
$SURFTYPE
 70
     6
  9
$SURFU
 70
     6
  9
$SURFV
 70
     6
  9
$UCSBASE
  2

  9
$UCSNAME
  2

  9
$UCSORG
 10
0.0
 20
0.0
 30
0.0
  9
$UCSXDIR
 10
1.0
 20
0.0
 30
0.0
  9
$UCSYDIR
 10
0.0
 20
1.0
 30
0.0
  9
$UCSORTHOREF
  2

  9
$UCSORTHOVIEW
 70
     0
  9
$UCSORGTOP
 10
0.0
 20
0.0
 30
0.0
  9
$UCSORGBOTTOM
 10
0.0
 20
0.0
 30
0.0
  9
$UCSORGLEFT
 10
0.0
 20
0.0
 30
0.0
  9
$UCSORGRIGHT
 10
0.0
 20
0.0
 30
0.0
  9
$UCSORGFRONT
 10
0.0
 20
0.0
 30
0.0
  9
$UCSORGBACK
 10
0.0
 20
0.0
 30
0.0
  9
$PUCSBASE
  2

  9
$PUCSNAME
  2

  9
$PUCSORG
 10
0.0
 20
0.0
 30
0.0
  9
$PUCSXDIR
 10
1.0
 20
0.0
 30
0.0
  9
$PUCSYDIR
 10
0.0
 20
1.0
 30
0.0
  9
$PUCSORTHOREF
  2

  9
$PUCSORTHOVIEW
 70
     0
  9
$PUCSORGTOP
 10
0.0
 20
0.0
 30
0.0
  9
$PUCSORGBOTTOM
 10
0.0
 20
0.0
 30
0.0
  9
$PUCSORGLEFT
 10
0.0
 20
0.0
 30
0.0
  9
$PUCSORGRIGHT
 10
0.0
 20
0.0
 30
0.0
  9
$PUCSORGFRONT
 10
0.0
 20
0.0
 30
0.0
  9
$PUCSORGBACK
 10
0.0
 20
0.0
 30
0.0
  9
$USERI1
 70
     0
  9
$USERI2
 70
     0
  9
$USERI3
 70
     0
  9
$USERI4
 70
     0
  9
$USERI5
 70
     0
  9
$USERR1
 40
0.0
  9
$USERR2
 40
0.0
  9
$USERR3
 40
0.0
  9
$USERR4
 40
0.0
  9
$USERR5
 40
0.0
  9
$WORLDVIEW
 70
     1
  9
$SHADEDGE
 70
     3
  9
$SHADEDIF
 70
    70
  9
$TILEMODE
 70
     1
  9
$MAXACTVP
 70
    64
  9
$PINSBASE
 10
0.0
 20
0.0
 30
0.0
  9
$PLIMCHECK
 70
     0
  9
$PEXTMIN
 10
1.0000000000E+20
 20
1.0000000000E+20
 30
1.0000000000E+20
  9
$PEXTMAX
 10
-1.0000000000E+20
 20
-1.0000000000E+20
 30
-1.0000000000E+20
  9
$PLIMMIN
 10
0.0
 20
0.0
  9
$PLIMMAX
 10
12.0
 20
9.0
  9
$UNITMODE
 70
     0
  9
$VISRETAIN
 70
     1
  9
$PLINEGEN
 70
     0
  9
$PSLTSCALE
 70
     1
  9
$TREEDEPTH
 70
  3020
  9
$CMLSTYLE
  2
Standard
  9
$CMLJUST
 70
     0
  9
$CMLSCALE
 40
1.0
  9
$PROXYGRAPHICS
 70
     1
  9
$MEASUREMENT
 70
     0
  9
$CELWEIGHT
370
    -1
  9
$ENDCAPS
280
     0
  9
$JOINSTYLE
280
     0
  9
$LWDISPLAY
290
     1
  9
$INSUNITS
 70
     1
  9
$HYPERLINKBASE
  1

  9
$STYLESHEET
  1

  9
$XEDIT
290
     1
  9
$CEPSNTYPE
380
     0
  9
$PSTYLEMODE
290
     1
  9
$FINGERPRINTGUID
  2
{dd135679-2d8c-42cb-ba40-3bf0a046f0b8}
  9
$VERSIONGUID
  2
{FAEB1C32-E019-11D5-929B-00C0DF256EC4}
  9
$EXTNAMES
290
     1
  9
$PSVPSCALE
 40
0.0
  9
$OLESTARTUP
290
     0
  0
ENDSEC
  0
SECTION
  2
CLASSES
  0
CLASS
  1
ACDBDICTIONARYWDFLT
  2
AcDbDictionaryWithDefault
  3
ObjectDBX Classes
 90
        0
280
     0
281
     0
  0
CLASS
  1
VISUALSTYLE
  2
AcDbVisualStyle
  3
ObjectDBX Classes
 90
     4095
280
     0
281
     0
  0
CLASS
  1
MATERIAL
  2
AcDbMaterial
  3
ObjectDBX Classes
 90
     1153
280
     0
281
     0
  0
CLASS
  1
SCALE
  2
AcDbScale
  3
ObjectDBX Classes
 90
     1153
280
     0
281
     0
  0
CLASS
  1
TABLESTYLE
  2
AcDbTableStyle
  3
ObjectDBX Classes
 90
     4095
280
     0
281
     0
  0
CLASS
  1
MLEADERSTYLE
  2
AcDbMLeaderStyle
  3
ACDB_MLEADERSTYLE_CLASS
 90
     4095
280
     0
281
     0
  0
CLASS
  1
SUN
  2
AcDbSun
  3
SCENEOE
 90
     1153
280
     0
281
     0
  0
CLASS
  1
ACDBPLACEHOLDER
  2
AcDbPlaceHolder
  3
ObjectDBX Classes
 90
        0
280
     0
281
     0
  0
CLASS
  1
LAYOUT
  2
AcDbLayout
  3
ObjectDBX Classes
 90
        0
280
     0
281
     0
  0
ENDSEC
  0
SECTION
  2
TABLES
  0
TABLE
  2
VPORT
  5
8
330
0
100
AcDbSymbolTable
 70
     1
  0
VPORT
  5
29
330
8
100
AcDbSymbolTableRecord
100
AcDbViewportTableRecord
  2
*Active
 70
     0
 10
0.0
 20
0.0
 11
1.0
 21
1.0
 12
1.347519718
 22
-0.1292902586
 13
0.0
 23
0.0
 14
0.5
 24
0.5
 15
0.5
 25
0.5
 16
0.0
 26
0.0
 36
1.0
 17
0.0
 27
0.0
 37
0.0
 40
0.5789572616
 41
4.9710762755
 42
50.0
 43
0.0
 44
0.0
 50
0.0
 51
0.0
 71
     0
 72
   100
 73
     1
 74
     3
 75
     0
 76
     0
 77
     0
 78
     0
281
     0
 65
     1
110
0.0
120
0.0
130
0.0
111
1.0
121
0.0
131
0.0
112
0.0
122
1.0
132
0.0
 79
     0
146
0.0
  0
ENDTAB
  0
TABLE
  2
LTYPE
  5
5
330
0
100
AcDbSymbolTable
 70
     6
  0
LTYPE
  5
14
330
5
100
AcDbSymbolTableRecord
100
AcDbLinetypeTableRecord
  2
ByBlock
 70
     0
  3

 72
    65
 73
     0
 40
0.0
  0
LTYPE
  5
15
330
5
100
AcDbSymbolTableRecord
100
AcDbLinetypeTableRecord
  2
ByLayer
 70
     0
  3

 72
    65
 73
     0
 40
0.0
  0
LTYPE
  5
16
330
5
100
AcDbSymbolTableRecord
100
AcDbLinetypeTableRecord
  2
Continuous
 70
     0
  3
Solid line
 72
    65
 73
     0
 40
0.0
  0
LTYPE
  5
6E
330
5
100
AcDbSymbolTableRecord
100
AcDbLinetypeTableRecord
  2
HIDDEN
 70
     0
  3
Hidden __ __ __ __ __ __ __ __ __ __ __ __ __ __
 72
    65
 73
     2
 40
0.075
 49
0.05
 74
     0
 49
-0.025
 74
     0
  0
LTYPE
  5
6F
330
5
100
AcDbSymbolTableRecord
100
AcDbLinetypeTableRecord
  2
PHANTOM
 70
     0
  3
Phantom ______  __  __  ______  __  __  ______
 72
    65
 73
     6
 40
0.5
 49
0.25
 74
     0
 49
-0.05
 74
     0
 49
0.05
 74
     0
 49
-0.05
 74
     0
 49
0.05
 74
     0
 49
-0.05
 74
     0
  0
LTYPE
  5
70
330
5
100
AcDbSymbolTableRecord
100
AcDbLinetypeTableRecord
  2
CENTER
 70
     0
  3
Center ____ _ ____ _ ____ _ ____ _ ____ _ ____
 72
    65
 73
     4
 40
0.4
 49
0.25
 74
     0
 49
-0.05
 74
     0
 49
0.05
 74
     0
 49
-0.05
 74
     0
  0
LTYPE
  5
71
330
5
100
AcDbSymbolTableRecord
100
AcDbLinetypeTableRecord
  2
CENTERX2
 70
     0
  3
Center (2x) ________  __  ________  __  _____
 72
    65
 73
     4
 40
0.8
 49
0.5
 74
     0
 49
-0.1
 74
     0
 49
0.1
 74
     0
 49
-0.1
 74
     0
  0
LTYPE
  5
72
330
5
100
AcDbSymbolTableRecord
100
AcDbLinetypeTableRecord
  2
DOT2
 70
     0
  3
Dot (.5x) ........................................
 72
    65
 73
     2
 40
0.025
 49
0.0
 74
     0
 49
-0.025
 74
     0
  0
ENDTAB
  0
TABLE
  2
LAYER
  5
2
330
0
100
AcDbSymbolTable
 70
     1
  0
LAYER
  5
10
330
2
100
AcDbSymbolTableRecord
100
AcDbLayerTableRecord
  2
0
 70
     0
 62
     7
  6
Continuous
370
    -3
390
F
  0
ENDTAB
  0
TABLE
  2
STYLE
  5
3
330
0
100
AcDbSymbolTable
 70
     1
  0
STYLE
  5
11
330
3
100
AcDbSymbolTableRecord
100
AcDbTextStyleTableRecord
  2
Standard
 70
     0
 40
0.0
 41
1.0
 50
0.0
 71
     0
 42
0.1377952756
  3
txt
  4

  0
ENDTAB
  0
TABLE
  2
VIEW
  5
6
330
0
100
AcDbSymbolTable
 70
     0
  0
ENDTAB
  0
TABLE
  2
UCS
  5
7
330
0
100
AcDbSymbolTable
 70
     0
  0
ENDTAB
  0
TABLE
  2
APPID
  5
9
330
0
100
AcDbSymbolTable
 70
     1
  0
APPID
  5
12
330
9
100
AcDbSymbolTableRecord
100
AcDbRegAppTableRecord
  2
ACAD
 70
     0
  0
ENDTAB
  0
TABLE
  2
DIMSTYLE
  5
A
330
0
100
AcDbSymbolTable
 70
     1
100
AcDbDimStyleTable
  0
DIMSTYLE
105
27
330
A
100
AcDbSymbolTableRecord
100
AcDbDimStyleTableRecord
  2
Standard
 70
     0
178
     0
340
11
  0
ENDTAB
  0
TABLE
  2
BLOCK_RECORD
  5
1
330
0
100
AcDbSymbolTable
 70
     1
  0
BLOCK_RECORD
  5
1F
330
1
100
AcDbSymbolTableRecord
100
AcDbBlockTableRecord
  2
*Model_Space
340
22
  0
BLOCK_RECORD
  5
1B
330
1
100
AcDbSymbolTableRecord
100
AcDbBlockTableRecord
  2
*Paper_Space
340
1E
  0
BLOCK_RECORD
  5
23
330
1
100
AcDbSymbolTableRecord
100
AcDbBlockTableRecord
  2
*Paper_Space0
340
26
  0
ENDTAB
  0
ENDSEC
  0
SECTION
  2
BLOCKS
  0
BLOCK
  5
20
330
1F
100
AcDbEntity
  8
0
100
AcDbBlockBegin
  2
*Model_Space
 70
     0
 10
0.0
 20
0.0
 30
0.0
  3
*Model_Space
  1

  0
ENDBLK
  5
21
330
1F
100
AcDbEntity
  8
0
100
AcDbBlockEnd
  0
BLOCK
  5
1C
330
1B
100
AcDbEntity
 67
     1
  8
0
100
AcDbBlockBegin
  2
*Paper_Space
 70
     0
 10
0.0
 20
0.0
 30
0.0
  3
*Paper_Space
  1

  0
ENDBLK
  5
1D
330
1B
100
AcDbEntity
 67
     1
  8
0
100
AcDbBlockEnd
  0
BLOCK
  5
24
330
23
100
AcDbEntity
  8
0
100
AcDbBlockBegin
  2
*Paper_Space0
 70
     0
 10
0.0
 20
0.0
 30
0.0
  3
*Paper_Space0
  1

  0
ENDBLK
  5
25
330
23
100
AcDbEntity
  8
0
100
AcDbBlockEnd
  0
ENDSEC
  0
SECTION
  2
ENTITIES
  0
LWPOLYLINE
  5
AB
330
1F
100
AcDbEntity
  8
0
  6
Continuous
 62
     7
370
    25
100
AcDbPolyline
 90
        8
 70
   128
 43
0.0
 10
2.680299765
 20
-0.2081527044
 10
2.68537005
 20
-0.1970876043
 10
2.6909246437
 20
-0.1875034688
 10
2.6968554323
 20
-0.1795868419
 10
2.7030469797
 20
-0.173491812
 10
2.7093787745
 20
-0.1693370118
 10
2.7157275755
 20
-0.1672033097
 10
2.720954143
 20
-0.1670015018
  0
LWPOLYLINE
  5
AC
330
1F
100
AcDbEntity
  8
0
  6
Continuous
 62
     7
370
    25
100
AcDbPolyline
 90
       17
 70
   128
 43
0.0
 10
2.6995508699
 20
-0.3793495095
 10
2.6954921614
 20
-0.3784788201
 10
2.6896362873
 20
-0.3754659324
 10
2.6841816844
 20
-0.3704620778
 10
2.6792345205
 20
-0.3635646508
 10
2.6748910863
 20
-0.3549079019
 10
2.671235922
 20
-0.3446603249
 10
2.6683401711
 20
-0.3330213772
 10
2.6662601961
 20
-0.3202175977
 10
2.6650364814
 20
-0.3064981973
 10
2.6646928452
 20
-0.2921302087
 10
2.665235976
 20
-0.2773932883
 10
2.6666553024
 20
-0.2625742736
 10
2.6689231987
 20
-0.2479615998
 10
2.671995523
 20
-0.2338396861
 10
2.675812476
 20
-0.2204833993
 10
2.680299765
 20
-0.2081527044
  0
LWPOLYLINE
  5
AD
330
1F
100
AcDbEntity
  8
0
  6
Continuous
 62
     7
370
    25
100
AcDbPolyline
 90
       17
 70
   128
 43
0.0
 10
2.6517583826
 20
-0.1844816971
 10
2.657576935
 20
-0.17158554
 10
2.6638939008
 20
-0.1601436079
 10
2.6706171644
 20
-0.1503227499
 10
2.6776486854
 20
-0.1422661761
 10
2.6848859285
 20
-0.1360913698
 10
2.6922233583
 20
-0.1318883733
 10
2.6995539786
 20
-0.1297184758
 10
2.7067708924
 20
-0.1296133194
 10
2.7137688609
 20
-0.1315744374
 10
2.720445838
 20
-0.1355732324
 10
2.7267044583
 20
-0.1415513929
 10
2.7324534569
 20
-0.1494217439
 10
2.7376090007
 20
-0.1590695178
 10
2.74209591
 20
-0.1703540285
 10
2.7458487558
 20
-0.1831107224
 10
2.7474802378
 20
-0.1902112533
  0
LWPOLYLINE
  5
AE
330
1F
100
AcDbEntity
  8
0
  6
Continuous
 62
     7
370
    25
100
AcDbPolyline
 90
       27
 70
   128
 43
0.0
 10
2.7301751354
 20
-0.3619001358
 10
2.7259358371
 20
-0.3710368984
 10
2.7196188713
 20
-0.3824788305
 10
2.7128956077
 20
-0.3922996885
 10
2.7058640867
 20
-0.4003562622
 10
2.6986268436
 20
-0.4065310686
 10
2.6912894138
 20
-0.4107340651
 10
2.6839587935
 20
-0.4129039626
 10
2.6767418797
 20
-0.413009119
 10
2.6697439112
 20
-0.4110480009
 10
2.6630669341
 20
-0.4070492059
 10
2.6568083139
 20
-0.4010710455
 10
2.6510593152
 20
-0.3932006945
 10
2.6459037714
 20
-0.3835529206
 10
2.6414168621
 20
-0.3722684098
 10
2.6376640163
 20
-0.3595117159
 10
2.6346999591
 20
-0.3454688602
 10
2.6325679131
 20
-0.3303446191
 10
2.6312989683
 20
-0.314359538
 10
2.6309116288
 20
-0.2977467155
 10
2.6314115429
 20
-0.280748404
 10
2.6327914207
 20
-0.2636124771
 10
2.6350311404
 20
-0.2465888151
 10
2.6380980419
 20
-0.2299256615
 10
2.641947403
 20
-0.2138660025
 10
2.6465230912
 20
-0.1986440241
 10
2.6517583826
 20
-0.1844816971
  0
LWPOLYLINE
  5
B0
330
1F
100
AcDbEntity
  8
0
  6
Continuous
 62
     7
370
    25
100
AcDbPolyline
 90
       20
 70
   128
 43
0.0
 10
2.6692452398
 20
-0.412264266
 10
2.6685213818
 20
-0.4121805472
 10
2.6615234132
 20
-0.4102194292
 10
2.6548464362
 20
-0.4062206342
 10
2.6485878159
 20
-0.4002424737
 10
2.6428388172
 20
-0.3923721228
 10
2.6376832735
 20
-0.3827243488
 10
2.6331963641
 20
-0.3714398381
 10
2.6294435184
 20
-0.3586831442
 10
2.6264794612
 20
-0.3446402884
 10
2.6243474152
 20
-0.3295160473
 10
2.6230784704
 20
-0.3135309663
 10
2.6226911309
 20
-0.2969181438
 10
2.6231910449
 20
-0.2799198323
 10
2.6245709227
 20
-0.2627839053
 10
2.6268106424
 20
-0.2457602434
 10
2.629877544
 20
-0.2290970898
 10
2.633726905
 20
-0.2130374308
 10
2.6383025932
 20
-0.1978154524
 10
2.6435378847
 20
-0.1836531253
  0
LWPOLYLINE
  5
B5
330
1F
100
AcDbEntity
  8
0
  6
Continuous
 62
     7
370
    25
100
AcDbPolyline
 90
       13
 70
   128
 43
0.0
 10
2.5952424592
 20
-0.1787852663
 10
2.6010610116
 20
-0.1658891092
 10
2.6073779774
 20
-0.154447177
 10
2.614101241
 20
-0.144626319
 10
2.621132762
 20
-0.1365697453
 10
2.628370005
 20
-0.1303949389
 10
2.6357074348
 20
-0.1261919424
 10
2.6430380551
 20
-0.124022045
 10
2.650254969
 20
-0.1239168886
 10
2.6572529375
 20
-0.1258780066
 10
2.6639299146
 20
-0.1298768016
 10
2.6701885348
 20
-0.1358549621
 10
2.6724334719
 20
-0.1386225914
  0
LWPOLYLINE
  5
B6
330
1F
100
AcDbEntity
  8
0
  6
Continuous
 62
     7
370
    25
100
AcDbPolyline
 90
       23
 70
   128
 43
0.0
 10
2.6463428789
 20
-0.3974748444
 10
2.6421109202
 20
-0.4008346378
 10
2.6347734904
 20
-0.4050376343
 10
2.6274428701
 20
-0.4072075317
 10
2.6202259563
 20
-0.4073126881
 10
2.6132279877
 20
-0.4053515701
 10
2.6065510107
 20
-0.4013527751
 10
2.6002923904
 20
-0.3953746146
 10
2.5945433917
 20
-0.3875042637
 10
2.589387848
 20
-0.3778564897
 10
2.5849009386
 20
-0.366571979
 10
2.5811480929
 20
-0.3538152851
 10
2.5781840357
 20
-0.3397724294
 10
2.5760519897
 20
-0.3246481882
 10
2.5747830449
 20
-0.3086631072
 10
2.5743957054
 20
-0.2920502847
 10
2.5748956194
 20
-0.2750519732
 10
2.5762754972
 20
-0.2579160462
 10
2.5785152169
 20
-0.2408923843
 10
2.5815821185
 20
-0.2242292307
 10
2.5854314795
 20
-0.2081695717
 10
2.5900071677
 20
-0.1929475933
 10
2.5952424592
 20
-0.1787852663
  0
LWPOLYLINE
  5
B8
330
1F
100
AcDbEntity
  8
0
  6
Continuous
 62
     7
370
    25
100
AcDbPolyline
 90
       20
 70
   128
 43
0.0
 10
2.6127293164
 20
-0.4065678352
 10
2.6120054583
 20
-0.4064841164
 10
2.6050074898
 20
-0.4045229983
 10
2.5983305127
 20
-0.4005242033
 10
2.5920718925
 20
-0.3945460429
 10
2.5863228938
 20
-0.3866756919
 10
2.58116735
 20
-0.377027918
 10
2.5766804407
 20
-0.3657434072
 10
2.5729275949
 20
-0.3529867133
 10
2.5699635377
 20
-0.3389438576
 10
2.5678314917
 20
-0.3238196165
 10
2.5665625469
 20
-0.3078345354
 10
2.5661752074
 20
-0.291221713
 10
2.5666751215
 20
-0.2742234014
 10
2.5680549993
 20
-0.2570874745
 10
2.570294719
 20
-0.2400638125
 10
2.5733616205
 20
-0.2234006589
 10
2.5772109816
 20
-0.2073409999
 10
2.5817866698
 20
-0.1921190215
 10
2.5870219612
 20
-0.1779566945
  0
LWPOLYLINE
  5
BB
330
1F
100
AcDbEntity
  8
0
  6
Continuous
 62
     7
370
    25
100
AcDbPolyline
 90
       46
 70
   128
 43
0.0
 10
2.7427170668
 20
-0.3384514816
 10
2.7472043558
 20
-0.3261207867
 10
2.7510213087
 20
-0.3127644999
 10
2.754093633
 20
-0.2986425861
 10
2.7563615294
 20
-0.2840299124
 10
2.7577808557
 20
-0.2692108976
 10
2.7583239865
 20
-0.2544739773
 10
2.7579803503
 20
-0.2401059887
 10
2.7567566356
 20
-0.2263865883
 10
2.7546766606
 20
-0.2135828088
 10
2.7517809097
 20
-0.2019438611
 10
2.7481257454
 20
-0.1916962841
 10
2.7437823113
 20
-0.1830395352
 10
2.7388351473
 20
-0.1761421082
 10
2.7333805444
 20
-0.1711382536
 10
2.7275246703
 20
-0.1681253659
 10
2.7213815029
 20
-0.1671620874
 10
2.7150706118
 20
-0.1682671673
 10
2.7087148316
 20
-0.1714190964
 10
2.7024378701
 20
-0.176556526
 10
2.6963619014
 20
-0.1835794619
 10
2.6906051871
 20
-0.1923512106
 10
2.6852797753
 20
-0.2027010401
 10
2.680489319
 20
-0.2144275026
 10
2.676327059
 20
-0.227302356
 10
2.6728740089
 20
-0.2410750057
 10
2.6701973784
 20
-0.255477383
 10
2.6683492652
 20
-0.2702291618
 10
2.6673656405
 20
-0.2850432156
 10
2.6672656497
 20
-0.2996312058
 10
2.6680512388
 20
-0.3137091935
 10
2.6697071172
 20
-0.3270031669
 10
2.6722010553
 20
-0.3392543738
 10
2.6754845112
 20
-0.3502243585
 10
2.6794935763
 20
-0.3596996027
 10
2.6841502188
 20
-0.3674956815
 10
2.6893638022
 20
-0.3734608531
 10
2.6950328502
 20
-0.3774790123
 10
2.7010470212
 20
-0.3794719501
 10
2.7072892562
 20
-0.3794008763
 10
2.7136380572
 20
-0.3772671742
 10
2.719969852
 20
-0.373112374
 10
2.7261613994
 20
-0.3670173441
 10
2.732092188
 20
-0.3591007172
 10
2.7376467817
 20
-0.3495165817
 10
2.7427170668
 20
-0.3384514816
  0
LWPOLYLINE
  5
BE
330
1F
100
AcDbEntity
  8
0
  6
Continuous
 62
     7
370
    25
100
AcDbPolyline
 90
       13
 70
   128
 43
0.0
 10
2.5387265357
 20
-0.1730888354
 10
2.5445450882
 20
-0.1601926783
 10
2.5508620539
 20
-0.1487507462
 10
2.5575853175
 20
-0.1389298882
 10
2.5646168385
 20
-0.1308733145
 10
2.5718540816
 20
-0.1246985081
 10
2.5791915114
 20
-0.1204955116
 10
2.5865221317
 20
-0.1183256141
 10
2.5937390455
 20
-0.1182204577
 10
2.600737014
 20
-0.1201815758
 10
2.6074139911
 20
-0.1241803707
 10
2.6136726114
 20
-0.1301585312
 10
2.6159175484
 20
-0.1329261605
  0
LWPOLYLINE
  5
BF
330
1F
100
AcDbEntity
  8
0
  6
Continuous
 62
     7
370
    25
100
AcDbPolyline
 90
       23
 70
   128
 43
0.0
 10
2.5898269554
 20
-0.3917784136
 10
2.5855949968
 20
-0.3951382069
 10
2.578257567
 20
-0.3993412034
 10
2.5709269467
 20
-0.4015111009
 10
2.5637100328
 20
-0.4016162573
 10
2.5567120643
 20
-0.3996551392
 10
2.5500350872
 20
-0.3956563443
 10
2.543776467
 20
-0.3896781838
 10
2.5380274683
 20
-0.3818078328
 10
2.5328719246
 20
-0.3721600589
 10
2.5283850152
 20
-0.3608755482
 10
2.5246321694
 20
-0.3481188543
 10
2.5216681122
 20
-0.3340759985
 10
2.5195360662
 20
-0.3189517574
 10
2.5182671214
 20
-0.3029666763
 10
2.5178797819
 20
-0.2863538539
 10
2.518379696
 20
-0.2693555423
 10
2.5197595738
 20
-0.2522196154
 10
2.5219992935
 20
-0.2351959535
 10
2.5250661951
 20
-0.2185327998
 10
2.5289155561
 20
-0.2024731408
 10
2.5334912443
 20
-0.1872511625
 10
2.5387265357
 20
-0.1730888354
  0
LWPOLYLINE
  5
C1
330
1F
100
AcDbEntity
  8
0
  6
Continuous
 62
     7
370
    25
100
AcDbPolyline
 90
       20
 70
   128
 43
0.0
 10
2.5562133929
 20
-0.4008714043
 10
2.5554895349
 20
-0.4007876855
 10
2.5484915663
 20
-0.3988265675
 10
2.5418145893
 20
-0.3948277725
 10
2.535555969
 20
-0.388849612
 10
2.5298069703
 20
-0.3809792611
 10
2.5246514266
 20
-0.3713314871
 10
2.5201645172
 20
-0.3600469764
 10
2.5164116715
 20
-0.3472902825
 10
2.5134476143
 20
-0.3332474268
 10
2.5113155683
 20
-0.3181231856
 10
2.5100466235
 20
-0.3021381046
 10
2.509659284
 20
-0.2855252821
 10
2.5101591981
 20
-0.2685269706
 10
2.5115390758
 20
-0.2513910436
 10
2.5137787956
 20
-0.2343673817
 10
2.5168456971
 20
-0.2177042281
 10
2.5206950581
 20
-0.2016445691
 10
2.5252707463
 20
-0.1864225907
 10
2.5305060378
 20
-0.1722602637
  0
LWPOLYLINE
  5
C6
330
1F
100
AcDbEntity
  8
0
  6
Continuous
 62
     7
370
    25
100
AcDbPolyline
 90
       13
 70
   128
 43
0.0
 10
2.4822106123
 20
-0.1673924046
 10
2.4880291647
 20
-0.1544962475
 10
2.4943461305
 20
-0.1430543154
 10
2.5010693941
 20
-0.1332334573
 10
2.5081009151
 20
-0.1251768836
 10
2.5153381581
 20
-0.1190020772
 10
2.5226755879
 20
-0.1147990807
 10
2.5300062082
 20
-0.1126291833
 10
2.5372231221
 20
-0.1125240269
 10
2.5442210906
 20
-0.1144851449
 10
2.5508980677
 20
-0.1184839399
 10
2.5571566879
 20
-0.1244621004
 10
2.559401625
 20
-0.1272297297
  0
LWPOLYLINE
  5
C7
330
1F
100
AcDbEntity
  8
0
  6
Continuous
 62
     7
370
    25
100
AcDbPolyline
 90
       23
 70
   128
 43
0.0
 10
2.533311032
 20
-0.3860819827
 10
2.5290790733
 20
-0.3894417761
 10
2.5217416435
 20
-0.3936447726
 10
2.5144110232
 20
-0.39581467
 10
2.5071941094
 20
-0.3959198264
 10
2.5001961409
 20
-0.3939587084
 10
2.4935191638
 20
-0.3899599134
 10
2.4872605435
 20
-0.3839817529
 10
2.4815115449
 20
-0.376111402
 10
2.4763560011
 20
-0.366463628
 10
2.4718690917
 20
-0.3551791173
 10
2.468116246
 20
-0.3424224234
 10
2.4651521888
 20
-0.3283795677
 10
2.4630201428
 20
-0.3132553265
 10
2.461751198
 20
-0.2972702455
 10
2.4613638585
 20
-0.280657423
 10
2.4618637726
 20
-0.2636591115
 10
2.4632436503
 20
-0.2465231846
 10
2.4654833701
 20
-0.2294995226
 10
2.4685502716
 20
-0.212836369
 10
2.4723996327
 20
-0.19677671
 10
2.4769753208
 20
-0.1815547316
 10
2.4822106123
 20
-0.1673924046
  0
LWPOLYLINE
  5
C9
330
1F
100
AcDbEntity
  8
0
  6
Continuous
 62
     7
370
    25
100
AcDbPolyline
 90
       20
 70
   128
 43
0.0
 10
2.4996974695
 20
-0.3951749735
 10
2.4989736114
 20
-0.3950912547
 10
2.4919756429
 20
-0.3931301366
 10
2.4852986658
 20
-0.3891313417
 10
2.4790400456
 20
-0.3831531812
 10
2.4732910469
 20
-0.3752828302
 10
2.4681355032
 20
-0.3656350563
 10
2.4636485938
 20
-0.3543505456
 10
2.459895748
 20
-0.3415938517
 10
2.4569316908
 20
-0.3275509959
 10
2.4547996448
 20
-0.3124267548
 10
2.4535307
 20
-0.2964416737
 10
2.4531433605
 20
-0.2798288513
 10
2.4536432746
 20
-0.2628305397
 10
2.4550231524
 20
-0.2456946128
 10
2.4572628721
 20
-0.2286709509
 10
2.4603297737
 20
-0.2120077972
 10
2.4641791347
 20
-0.1959481382
 10
2.4687548229
 20
-0.1807261599
 10
2.4739901143
 20
-0.1665638328
  0
LWPOLYLINE
  5
CE
330
1F
100
AcDbEntity
  8
0
  6
Continuous
 62
     7
370
    25
100
AcDbPolyline
 90
       13
 70
   128
 43
0.0
 10
2.4256946889
 20
-0.1616959737
 10
2.4315132413
 20
-0.1487998166
 10
2.4378302071
 20
-0.1373578845
 10
2.4445534706
 20
-0.1275370265
 10
2.4515849916
 20
-0.1194804528
 10
2.4588222347
 20
-0.1133056464
 10
2.4661596645
 20
-0.1091026499
 10
2.4734902848
 20
-0.1069327525
 10
2.4807071986
 20
-0.106827596
 10
2.4877051672
 20
-0.1087887141
 10
2.4943821442
 20
-0.1127875091
 10
2.5006407645
 20
-0.1187656695
 10
2.5028857015
 20
-0.1215332989
  0
LWPOLYLINE
  5
CF
330
1F
100
AcDbEntity
  8
0
  6
Continuous
 62
     7
370
    25
100
AcDbPolyline
 90
       23
 70
   128
 43
0.0
 10
2.4767951085
 20
-0.3803855519
 10
2.4725631499
 20
-0.3837453452
 10
2.4652257201
 20
-0.3879483417
 10
2.4578950998
 20
-0.3901182392
 10
2.4506781859
 20
-0.3902233956
 10
2.4436802174
 20
-0.3882622776
 10
2.4370032403
 20
-0.3842634826
 10
2.4307446201
 20
-0.3782853221
 10
2.4249956214
 20
-0.3704149712
 10
2.4198400777
 20
-0.3607671972
 10
2.4153531683
 20
-0.3494826865
 10
2.4116003226
 20
-0.3367259926
 10
2.4086362654
 20
-0.3226831368
 10
2.4065042194
 20
-0.3075588957
 10
2.4052352746
 20
-0.2915738147
 10
2.4048479351
 20
-0.2749609922
 10
2.4053478491
 20
-0.2579626807
 10
2.4067277269
 20
-0.2408267537
 10
2.4089674466
 20
-0.2238030918
 10
2.4120343482
 20
-0.2071399382
 10
2.4158837092
 20
-0.1910802792
 10
2.4204593974
 20
-0.1758583008
 10
2.4256946889
 20
-0.1616959737
  0
LWPOLYLINE
  5
D1
330
1F
100
AcDbEntity
  8
0
  6
Continuous
 62
     7
370
    25
100
AcDbPolyline
 90
       20
 70
   128
 43
0.0
 10
2.443181546
 20
-0.3894785427
 10
2.442457688
 20
-0.3893948238
 10
2.4354597195
 20
-0.3874337058
 10
2.4287827424
 20
-0.3834349108
 10
2.4225241221
 20
-0.3774567503
 10
2.4167751235
 20
-0.3695863994
 10
2.4116195797
 20
-0.3599386254
 10
2.4071326704
 20
-0.3486541147
 10
2.4033798246
 20
-0.3358974208
 10
2.4004157674
 20
-0.3218545651
 10
2.3982837214
 20
-0.3067303239
 10
2.3970147766
 20
-0.2907452429
 10
2.3966274371
 20
-0.2741324204
 10
2.3971273512
 20
-0.2571341089
 10
2.3985072289
 20
-0.239998182
 10
2.4007469487
 20
-0.22297452
 10
2.4038138502
 20
-0.2063113664
 10
2.4076632113
 20
-0.1902517074
 10
2.4122388994
 20
-0.175029729
 10
2.4174741909
 20
-0.160867402
  0
LWPOLYLINE
  5
D6
330
1F
100
AcDbEntity
  8
0
  6
Continuous
 62
     7
370
    25
100
AcDbPolyline
 90
       13
 70
   128
 43
0.0
 10
2.3691787654
 20
-0.1559995429
 10
2.3749973178
 20
-0.1431033858
 10
2.3813142836
 20
-0.1316614537
 10
2.3880375472
 20
-0.1218405956
 10
2.3950690682
 20
-0.1137840219
 10
2.4023063113
 20
-0.1076092156
 10
2.4096437411
 20
-0.1034062191
 10
2.4169743614
 20
-0.1012363216
 10
2.4241912752
 20
-0.1011311652
 10
2.4311892437
 20
-0.1030922832
 10
2.4378662208
 20
-0.1070910782
 10
2.444124841
 20
-0.1130692387
 10
2.4463697781
 20
-0.115836868
  0
LWPOLYLINE
  5
D7
330
1F
100
AcDbEntity
  8
0
  6
Continuous
 62
     7
370
    25
100
AcDbPolyline
 90
       23
 70
   128
 43
0.0
 10
2.4202791851
 20
-0.374689121
 10
2.4160472264
 20
-0.3780489144
 10
2.4087097966
 20
-0.3822519109
 10
2.4013791763
 20
-0.3844218084
 10
2.3941622625
 20
-0.3845269648
 10
2.387164294
 20
-0.3825658467
 10
2.3804873169
 20
-0.3785670517
 10
2.3742286966
 20
-0.3725888913
 10
2.368479698
 20
-0.3647185403
 10
2.3633241542
 20
-0.3550707664
 10
2.3588372449
 20
-0.3437862556
 10
2.3550843991
 20
-0.3310295617
 10
2.3521203419
 20
-0.316986706
 10
2.3499882959
 20
-0.3018624649
 10
2.3487193511
 20
-0.2858773838
 10
2.3483320116
 20
-0.2692645613
 10
2.3488319257
 20
-0.2522662498
 10
2.3502118034
 20
-0.2351303229
 10
2.3524515232
 20
-0.2181066609
 10
2.3555184247
 20
-0.2014435073
 10
2.3593677858
 20
-0.1853838483
 10
2.3639434739
 20
-0.1701618699
 10
2.3691787654
 20
-0.1559995429
  0
LWPOLYLINE
  5
D9
330
1F
100
AcDbEntity
  8
0
  6
Continuous
 62
     7
370
    25
100
AcDbPolyline
 90
       20
 70
   128
 43
0.0
 10
2.3866656226
 20
-0.3837821118
 10
2.3859417645
 20
-0.383698393
 10
2.378943796
 20
-0.381737275
 10
2.3722668189
 20
-0.37773848
 10
2.3660081987
 20
-0.3717603195
 10
2.3602592
 20
-0.3638899686
 10
2.3551036563
 20
-0.3542421946
 10
2.3506167469
 20
-0.3429576839
 10
2.3468639012
 20
-0.33020099
 10
2.343899844
 20
-0.3161581342
 10
2.341767798
 20
-0.3010338931
 10
2.3404988532
 20
-0.2850488121
 10
2.3401115137
 20
-0.2684359896
 10
2.3406114277
 20
-0.2514376781
 10
2.3419913055
 20
-0.2343017511
 10
2.3442310252
 20
-0.2172780892
 10
2.3472979268
 20
-0.2006149356
 10
2.3511472878
 20
-0.1845552766
 10
2.355722976
 20
-0.1693332982
 10
2.3609582675
 20
-0.1551709711
  0
LWPOLYLINE
  5
DE
330
1F
100
AcDbEntity
  8
0
  6
Continuous
 62
     7
370
    25
100
AcDbPolyline
 90
       13
 70
   128
 43
0.0
 10
2.312662842
 20
-0.1503031121
 10
2.3184813944
 20
-0.137406955
 10
2.3247983602
 20
-0.1259650228
 10
2.3315216237
 20
-0.1161441648
 10
2.3385531448
 20
-0.1080875911
 10
2.3457903878
 20
-0.1019127847
 10
2.3531278176
 20
-0.0977097882
 10
2.3604584379
 20
-0.0955398908
 10
2.3676753517
 20
-0.0954347344
 10
2.3746733203
 20
-0.0973958524
 10
2.3813502973
 20
-0.1013946474
 10
2.3876089176
 20
-0.1073728079
 10
2.3898538546
 20
-0.1101404372
  0
LWPOLYLINE
  5
DF
330
1F
100
AcDbEntity
  8
0
  6
Continuous
 62
     7
370
    25
100
AcDbPolyline
 90
       23
 70
   128
 43
0.0
 10
2.3637632616
 20
-0.3689926902
 10
2.359531303
 20
-0.3723524836
 10
2.3521938732
 20
-0.3765554801
 10
2.3448632529
 20
-0.3787253775
 10
2.3376463391
 20
-0.3788305339
 10
2.3306483705
 20
-0.3768694159
 10
2.3239713935
 20
-0.3728706209
 10
2.3177127732
 20
-0.3668924604
 10
2.3119637745
 20
-0.3590221095
 10
2.3068082308
 20
-0.3493743355
 10
2.3023213214
 20
-0.3380898248
 10
2.2985684757
 20
-0.3253331309
 10
2.2956044185
 20
-0.3112902752
 10
2.2934723725
 20
-0.296166034
 10
2.2922034277
 20
-0.280180953
 10
2.2918160882
 20
-0.2635681305
 10
2.2923160022
 20
-0.246569819
 10
2.29369588
 20
-0.229433892
 10
2.2959355997
 20
-0.2124102301
 10
2.2990025013
 20
-0.1957470765
 10
2.3028518623
 20
-0.1796874175
 10
2.3074275505
 20
-0.1644654391
 10
2.312662842
 20
-0.1503031121
  0
LWPOLYLINE
  5
E1
330
1F
100
AcDbEntity
  8
0
  6
Continuous
 62
     7
370
    25
100
AcDbPolyline
 90
       20
 70
   128
 43
0.0
 10
2.3301496992
 20
-0.378085681
 10
2.3294258411
 20
-0.3780019622
 10
2.3224278726
 20
-0.3760408441
 10
2.3157508955
 20
-0.3720420491
 10
2.3094922752
 20
-0.3660638887
 10
2.3037432766
 20
-0.3581935377
 10
2.2985877328
 20
-0.3485457638
 10
2.2941008235
 20
-0.337261253
 10
2.2903479777
 20
-0.3245045591
 10
2.2873839205
 20
-0.3104617034
 10
2.2852518745
 20
-0.2953374623
 10
2.2839829297
 20
-0.2793523812
 10
2.2835955902
 20
-0.2627395587
 10
2.2840955043
 20
-0.2457412472
 10
2.285475382
 20
-0.2286053203
 10
2.2877151018
 20
-0.2115816583
 10
2.2907820033
 20
-0.1949185047
 10
2.2946313644
 20
-0.1788588457
 10
2.2992070525
 20
-0.1636368673
 10
2.304442344
 20
-0.1494745403
  0
LWPOLYLINE
  5
E6
330
1F
100
AcDbEntity
  8
0
  6
Continuous
 62
     7
370
    25
100
AcDbPolyline
 90
       13
 70
   128
 43
0.0
 10
2.2561469185
 20
-0.1446066812
 10
2.2619654709
 20
-0.1317105241
 10
2.2682824367
 20
-0.120268592
 10
2.2750057003
 20
-0.110447734
 10
2.2820372213
 20
-0.1023911603
 10
2.2892744644
 20
-0.0962163539
 10
2.2966118942
 20
-0.0920133574
 10
2.3039425145
 20
-0.0898434599
 10
2.3111594283
 20
-0.0897383035
 10
2.3181573968
 20
-0.0916994216
 10
2.3248343739
 20
-0.0956982165
 10
2.3310929942
 20
-0.101676377
 10
2.3333379312
 20
-0.1044440063
  0
LWPOLYLINE
  5
E7
330
1F
100
AcDbEntity
  8
0
  6
Continuous
 62
     7
370
    25
100
AcDbPolyline
 90
       23
 70
   128
 43
0.0
 10
2.3072473382
 20
-0.3632962594
 10
2.3030153795
 20
-0.3666560527
 10
2.2956779497
 20
-0.3708590492
 10
2.2883473294
 20
-0.3730289467
 10
2.2811304156
 20
-0.3731341031
 10
2.2741324471
 20
-0.371172985
 10
2.26745547
 20
-0.3671741901
 10
2.2611968497
 20
-0.3611960296
 10
2.2554478511
 20
-0.3533256786
 10
2.2502923073
 20
-0.3436779047
 10
2.245805398
 20
-0.332393394
 10
2.2420525522
 20
-0.3196367001
 10
2.239088495
 20
-0.3055938443
 10
2.236956449
 20
-0.2904696032
 10
2.2356875042
 20
-0.2744845221
 10
2.2353001647
 20
-0.2578716997
 10
2.2358000788
 20
-0.2408733881
 10
2.2371799566
 20
-0.2237374612
 10
2.2394196763
 20
-0.2067137993
 10
2.2424865778
 20
-0.1900506456
 10
2.2463359389
 20
-0.1739909866
 10
2.2509116271
 20
-0.1587690083
 10
2.2561469185
 20
-0.1446066812
  0
LWPOLYLINE
  5
E9
330
1F
100
AcDbEntity
  8
0
  6
Continuous
 62
     7
370
    25
100
AcDbPolyline
 90
       20
 70
   128
 43
0.0
 10
2.2736337757
 20
-0.3723892501
 10
2.2729099177
 20
-0.3723055313
 10
2.2659119491
 20
-0.3703444133
 10
2.2592349721
 20
-0.3663456183
 10
2.2529763518
 20
-0.3603674578
 10
2.2472273531
 20
-0.3524971069
 10
2.2420718094
 20
-0.3428493329
 10
2.2375849
 20
-0.3315648222
 10
2.2338320543
 20
-0.3188081283
 10
2.2308679971
 20
-0.3047652726
 10
2.2287359511
 20
-0.2896410314
 10
2.2274670063
 20
-0.2736559504
 10
2.2270796668
 20
-0.2570431279
 10
2.2275795808
 20
-0.2400448164
 10
2.2289594586
 20
-0.2229088894
 10
2.2311991783
 20
-0.2058852275
 10
2.2342660799
 20
-0.1892220739
 10
2.2381154409
 20
-0.1731624149
 10
2.2426911291
 20
-0.1579404365
 10
2.2479264206
 20
-0.1437781095
  0
LWPOLYLINE
  5
EE
330
1F
100
AcDbEntity
  8
0
  6
Continuous
 62
     7
370
    25
100
AcDbPolyline
 90
       13
 70
   128
 43
0.0
 10
2.1996309951
 20
-0.1389102504
 10
2.2054495475
 20
-0.1260140933
 10
2.2117665133
 20
-0.1145721612
 10
2.2184897769
 20
-0.1047513031
 10
2.2255212979
 20
-0.0966947294
 10
2.2327585409
 20
-0.090519923
 10
2.2400959707
 20
-0.0863169265
 10
2.247426591
 20
-0.0841470291
 10
2.2546435049
 20
-0.0840418727
 10
2.2616414734
 20
-0.0860029907
 10
2.2683184505
 20
-0.0900017857
 10
2.2745770707
 20
-0.0959799462
 10
2.2768220078
 20
-0.0987475755
  0
LWPOLYLINE
  5
EF
330
1F
100
AcDbEntity
  8
0
  6
Continuous
 62
     7
370
    25
100
AcDbPolyline
 90
       23
 70
   128
 43
0.0
 10
2.2507314147
 20
-0.3575998285
 10
2.2464994561
 20
-0.3609596219
 10
2.2391620263
 20
-0.3651626184
 10
2.231831406
 20
-0.3673325158
 10
2.2246144922
 20
-0.3674376722
 10
2.2176165236
 20
-0.3654765542
 10
2.2109395466
 20
-0.3614777592
 10
2.2046809263
 20
-0.3554995987
 10
2.1989319276
 20
-0.3476292478
 10
2.1937763839
 20
-0.3379814738
 10
2.1892894745
 20
-0.3266969631
 10
2.1855366288
 20
-0.3139402692
 10
2.1825725716
 20
-0.2998974135
 10
2.1804405256
 20
-0.2847731723
 10
2.1791715808
 20
-0.2687880913
 10
2.1787842413
 20
-0.2521752688
 10
2.1792841553
 20
-0.2351769573
 10
2.1806640331
 20
-0.2180410304
 10
2.1829037528
 20
-0.2010173684
 10
2.1859706544
 20
-0.1843542148
 10
2.1898200154
 20
-0.1682945558
 10
2.1943957036
 20
-0.1530725774
 10
2.1996309951
 20
-0.1389102504
  0
LWPOLYLINE
  5
F1
330
1F
100
AcDbEntity
  8
0
  6
Continuous
 62
     7
370
    25
100
AcDbPolyline
 90
       20
 70
   128
 43
0.0
 10
2.2171178523
 20
-0.3666928193
 10
2.2163939942
 20
-0.3666091005
 10
2.2093960257
 20
-0.3646479824
 10
2.2027190486
 20
-0.3606491875
 10
2.1964604284
 20
-0.354671027
 10
2.1907114297
 20
-0.346800676
 10
2.1855558859
 20
-0.3371529021
 10
2.1810689766
 20
-0.3258683914
 10
2.1773161308
 20
-0.3131116975
 10
2.1743520736
 20
-0.2990688417
 10
2.1722200276
 20
-0.2839446006
 10
2.1709510828
 20
-0.2679595195
 10
2.1705637433
 20
-0.2513466971
 10
2.1710636574
 20
-0.2343483855
 10
2.1724435352
 20
-0.2172124586
 10
2.1746832549
 20
-0.2001887967
 10
2.1777501564
 20
-0.183525643
 10
2.1815995175
 20
-0.167465984
 10
2.1861752057
 20
-0.1522440057
 10
2.1914104971
 20
-0.1380816786
  0
LWPOLYLINE
  5
F6
330
1F
100
AcDbEntity
  8
0
  6
Continuous
 62
     7
370
    25
100
AcDbPolyline
 90
       13
 70
   128
 43
0.0
 10
2.1431150716
 20
-0.1332138195
 10
2.1489336241
 20
-0.1203176624
 10
2.1552505898
 20
-0.1088757303
 10
2.1619738534
 20
-0.0990548723
 10
2.1690053744
 20
-0.0909982986
 10
2.1762426175
 20
-0.0848234922
 10
2.1835800473
 20
-0.0806204957
 10
2.1909106676
 20
-0.0784505983
 10
2.1981275814
 20
-0.0783454418
 10
2.2051255499
 20
-0.0803065599
 10
2.211802527
 20
-0.0843053549
 10
2.2180611473
 20
-0.0902835153
 10
2.2203060843
 20
-0.0930511447
  0
LWPOLYLINE
  5
F7
330
1F
100
AcDbEntity
  8
0
  6
Continuous
 62
     7
370
    25
100
AcDbPolyline
 90
       23
 70
   128
 43
0.0
 10
2.1942154913
 20
-0.3519033977
 10
2.1899835327
 20
-0.355263191
 10
2.1826461029
 20
-0.3594661875
 10
2.1753154826
 20
-0.361636085
 10
2.1680985687
 20
-0.3617412414
 10
2.1611006002
 20
-0.3597801234
 10
2.1544236231
 20
-0.3557813284
 10
2.1481650029
 20
-0.3498031679
 10
2.1424160042
 20
-0.341932817
 10
2.1372604605
 20
-0.332285043
 10
2.1327735511
 20
-0.3210005323
 10
2.1290207053
 20
-0.3082438384
 10
2.1260566481
 20
-0.2942009826
 10
2.1239246021
 20
-0.2790767415
 10
2.1226556573
 20
-0.2630916605
 10
2.1222683178
 20
-0.246478838
 10
2.1227682319
 20
-0.2294805265
 10
2.1241481097
 20
-0.2123445995
 10
2.1263878294
 20
-0.1953209376
 10
2.129454731
 20
-0.178657784
 10
2.133304092
 20
-0.162598125
 10
2.1378797802
 20
-0.1473761466
 10
2.1431150716
 20
-0.1332138195
  0
LWPOLYLINE
  5
F9
330
1F
100
AcDbEntity
  8
0
  6
Continuous
 62
     7
370
    25
100
AcDbPolyline
 90
       20
 70
   128
 43
0.0
 10
2.1606019288
 20
-0.3609963885
 10
2.1598780708
 20
-0.3609126696
 10
2.1528801022
 20
-0.3589515516
 10
2.1462031252
 20
-0.3549527566
 10
2.1399445049
 20
-0.3489745961
 10
2.1341955062
 20
-0.3411042452
 10
2.1290399625
 20
-0.3314564712
 10
2.1245530531
 20
-0.3201719605
 10
2.1208002074
 20
-0.3074152666
 10
2.1178361502
 20
-0.2933724109
 10
2.1157041042
 20
-0.2782481697
 10
2.1144351594
 20
-0.2622630887
 10
2.1140478199
 20
-0.2456502662
 10
2.1145477339
 20
-0.2286519547
 10
2.1159276117
 20
-0.2115160278
 10
2.1181673314
 20
-0.1944923658
 10
2.121234233
 20
-0.1778292122
 10
2.125083594
 20
-0.1617695532
 10
2.1296592822
 20
-0.1465475748
 10
2.1348945737
 20
-0.1323852478
  0
LWPOLYLINE
  5
FE
330
1F
100
AcDbEntity
  8
0
  6
Continuous
 62
     7
370
    25
100
AcDbPolyline
 90
       13
 70
   128
 43
0.0
 10
2.0865991482
 20
-0.1275173887
 10
2.0924177006
 20
-0.1146212316
 10
2.0987346664
 20
-0.1031792995
 10
2.10545793
 20
-0.0933584414
 10
2.112489451
 20
-0.0853018677
 10
2.119726694
 20
-0.0791270614
 10
2.1270641238
 20
-0.0749240649
 10
2.1343947441
 20
-0.0727541674
 10
2.141611658
 20
-0.072649011
 10
2.1486096265
 20
-0.074610129
 10
2.1552866036
 20
-0.078608924
 10
2.1615452238
 20
-0.0845870845
 10
2.1637901609
 20
-0.0873547138
  0
LWPOLYLINE
  5
FF
330
1F
100
AcDbEntity
  8
0
  6
Continuous
 62
     7
370
    25
100
AcDbPolyline
 90
       23
 70
   128
 43
0.0
 10
2.1376995679
 20
-0.3462069668
 10
2.1334676092
 20
-0.3495667602
 10
2.1261301794
 20
-0.3537697567
 10
2.1187995591
 20
-0.3559396541
 10
2.1115826453
 20
-0.3560448106
 10
2.1045846768
 20
-0.3540836925
 10
2.0979076997
 20
-0.3500848975
 10
2.0916490794
 20
-0.3441067371
 10
2.0859000807
 20
-0.3362363861
 10
2.080744537
 20
-0.3265886121
 10
2.0762576276
 20
-0.3153041014
 10
2.0725047819
 20
-0.3025474075
 10
2.0695407247
 20
-0.2885045518
 10
2.0674086787
 20
-0.2733803107
 10
2.0661397339
 20
-0.2573952296
 10
2.0657523944
 20
-0.2407824071
 10
2.0662523085
 20
-0.2237840956
 10
2.0676321862
 20
-0.2066481687
 10
2.069871906
 20
-0.1896245067
 10
2.0729388075
 20
-0.1729613531
 10
2.0767881686
 20
-0.1569016941
 10
2.0813638567
 20
-0.1416797157
 10
2.0865991482
 20
-0.1275173887
  0
LWPOLYLINE
  5
101
330
1F
100
AcDbEntity
  8
0
  6
Continuous
 62
     7
370
    25
100
AcDbPolyline
 90
       20
 70
   128
 43
0.0
 10
2.1040860054
 20
-0.3552999576
 10
2.1033621473
 20
-0.3552162388
 10
2.0963641788
 20
-0.3532551208
 10
2.0896872017
 20
-0.3492563258
 10
2.0834285815
 20
-0.3432781653
 10
2.0776795828
 20
-0.3354078144
 10
2.0725240391
 20
-0.3257600404
 10
2.0680371297
 20
-0.3144755297
 10
2.0642842839
 20
-0.3017188358
 10
2.0613202267
 20
-0.28767598
 10
2.0591881807
 20
-0.2725517389
 10
2.0579192359
 20
-0.2565666579
 10
2.0575318964
 20
-0.2399538354
 10
2.0580318105
 20
-0.2229555239
 10
2.0594116883
 20
-0.2058195969
 10
2.061651408
 20
-0.188795935
 10
2.0647183096
 20
-0.1721327814
 10
2.0685676706
 20
-0.1560731224
 10
2.0731433588
 20
-0.140851144
 10
2.0783786502
 20
-0.1266888169
  0
LWPOLYLINE
  5
106
330
1F
100
AcDbEntity
  8
0
  6
Continuous
 62
     7
370
    25
100
AcDbPolyline
 90
       13
 70
   128
 43
0.0
 10
2.0300832247
 20
-0.1218209578
 10
2.0359017772
 20
-0.1089248008
 10
2.042218743
 20
-0.0974828686
 10
2.0489420065
 20
-0.0876620106
 10
2.0559735275
 20
-0.0796054369
 10
2.0632107706
 20
-0.0734306305
 10
2.0705482004
 20
-0.069227634
 10
2.0778788207
 20
-0.0670577366
 10
2.0850957345
 20
-0.0669525802
 10
2.0920937031
 20
-0.0689136982
 10
2.0987706801
 20
-0.0729124932
 10
2.1050293004
 20
-0.0788906537
 10
2.1072742374
 20
-0.081658283
  0
LWPOLYLINE
  5
107
330
1F
100
AcDbEntity
  8
0
  6
Continuous
 62
     7
370
    25
100
AcDbPolyline
 90
       23
 70
   128
 43
0.0
 10
2.0811836444
 20
-0.340510536
 10
2.0769516858
 20
-0.3438703294
 10
2.069614256
 20
-0.3480733259
 10
2.0622836357
 20
-0.3502432233
 10
2.0550667218
 20
-0.3503483797
 10
2.0480687533
 20
-0.3483872617
 10
2.0413917762
 20
-0.3443884667
 10
2.035133156
 20
-0.3384103062
 10
2.0293841573
 20
-0.3305399553
 10
2.0242286136
 20
-0.3208921813
 10
2.0197417042
 20
-0.3096076706
 10
2.0159888585
 20
-0.2968509767
 10
2.0130248013
 20
-0.282808121
 10
2.0108927552
 20
-0.2676838798
 10
2.0096238105
 20
-0.2516987988
 10
2.009236471
 20
-0.2350859763
 10
2.009736385
 20
-0.2180876648
 10
2.0111162628
 20
-0.2009517378
 10
2.0133559825
 20
-0.1839280759
 10
2.0164228841
 20
-0.1672649223
 10
2.0202722451
 20
-0.1512052633
 10
2.0248479333
 20
-0.1359832849
 10
2.0300832247
 20
-0.1218209578
  0
LWPOLYLINE
  5
109
330
1F
100
AcDbEntity
  8
0
  6
Continuous
 62
     7
370
    25
100
AcDbPolyline
 90
       20
 70
   128
 43
0.0
 10
2.0475700819
 20
-0.3496035268
 10
2.0468462239
 20
-0.349519808
 10
2.0398482554
 20
-0.3475586899
 10
2.0331712783
 20
-0.3435598949
 10
2.026912658
 20
-0.3375817345
 10
2.0211636593
 20
-0.3297113835
 10
2.0160081156
 20
-0.3200636095
 10
2.0115212062
 20
-0.3087790988
 10
2.0077683605
 20
-0.2960224049
 10
2.0048043033
 20
-0.2819795492
 10
2.0026722573
 20
-0.2668553081
 10
2.0014033125
 20
-0.250870227
 10
2.001015973
 20
-0.2342574045
 10
2.0015158871
 20
-0.217259093
 10
2.0028957648
 20
-0.2001231661
 10
2.0051354846
 20
-0.1830995041
 10
2.0082023861
 20
-0.1664363505
 10
2.0120517472
 20
-0.1503766915
 10
2.0166274353
 20
-0.1351547131
 10
2.0218627268
 20
-0.1209923861
  0
LWPOLYLINE
  5
10C
330
1F
100
AcDbEntity
  8
0
  6
Continuous
 62
     7
370
    25
100
AcDbPolyline
 90
       28
 70
   128
 43
0.0
 10
2.0235447585
 20
-0.0607378906
 10
2.0170517028
 20
-0.0609267659
 10
2.0097210825
 20
-0.0630966633
 10
2.0023836527
 20
-0.0672996598
 10
1.9951464096
 20
-0.0734744662
 10
1.9881148886
 20
-0.0815310399
 10
1.981391625
 20
-0.0913518979
 10
1.9750746592
 20
-0.1027938301
 10
1.9692561068
 20
-0.1156899872
 10
1.9640208154
 20
-0.1298523142
 10
1.9594451272
 20
-0.1450742926
 10
1.9555957661
 20
-0.1611339516
 10
1.9525288646
 20
-0.1777971052
 10
1.9502891449
 20
-0.1948207671
 10
1.9489092671
 20
-0.2119566941
 10
1.948409353
 20
-0.2289550056
 10
1.9487966925
 20
-0.2455678281
 10
1.9500656373
 20
-0.2615529091
 10
1.9521976833
 20
-0.2766771503
 10
1.9551617405
 20
-0.290720006
 10
1.9589145863
 20
-0.3034766999
 10
1.9634014956
 20
-0.3147612106
 10
1.9685570394
 20
-0.3244089846
 10
1.974306038
 20
-0.3322793355
 10
1.9805646583
 20
-0.338257496
 10
1.9872416354
 20
-0.342256291
 10
1.9942396039
 20
-0.344217409
 10
1.994963462
 20
-0.3443011278
  0
LWPOLYLINE
  5
10D
330
1F
100
AcDbEntity
  8
0
  6
Continuous
 62
     7
370
    25
100
AcDbPolyline
 90
       37
 70
   128
 43
0.0
 10
2.0406023482
 20
-0.0662913123
 10
2.0388134251
 20
-0.0636772287
 10
2.03250845
 20
-0.0562117332
 10
2.0257226923
 20
-0.0507080367
 10
2.0185479178
 20
-0.0472405672
 10
2.0110811529
 20
-0.0458562163
 10
2.0034233729
 20
-0.046573705
 10
1.9956781361
 20
-0.0493833305
 10
1.9879501835
 20
-0.0542470974
 10
1.9803440224
 20
-0.0610992316
 10
1.9729625132
 20
-0.0698470698
 10
1.9659054781
 20
-0.0803723124
 10
1.9592683513
 20
-0.0925326236
 10
1.9531408886
 20
-0.1061635561
 10
1.9476059534
 20
-0.1210807748
 10
1.9427383963
 20
-0.13708255
 10
1.9386040426
 20
-0.1539524852
 10
1.9352588023
 20
-0.1714624433
 10
1.9327479141
 20
-0.1893756323
 10
1.9311053334
 20
-0.2074498069
 10
1.9303532734
 20
-0.2254405451
 10
1.9305019043
 20
-0.2431045528
 10
1.9315492161
 20
-0.2602029548
 10
1.9334810458
 20
-0.2765045244
 10
1.9362712687
 20
-0.2917888109
 10
1.9398821518
 20
-0.3058491206
 10
1.9442648641
 20
-0.3184953118
 10
1.949360137
 20
-0.3295563666
 10
1.9550990655
 20
-0.338882703
 10
1.9614040407
 20
-0.3463481986
 10
1.9681897983
 20
-0.3518518951
 10
1.9753645729
 20
-0.3553193646
 10
1.9828313377
 20
-0.3567037155
 10
1.9904891177
 20
-0.3559862268
 10
1.9982343546
 20
-0.3531766013
 10
2.0059623071
 20
-0.3483128344
 10
2.0127861881
 20
-0.342263411
  0
LWPOLYLINE
  5
10E
330
1F
100
AcDbEntity
  8
0
  6
Continuous
 62
     7
370
    25
100
AcDbPolyline
 90
       20
 70
   128
 43
0.0
 10
-0.034772809
 20
0.0942049809
 10
-0.0403077441
 20
0.0792877621
 10
-0.0451753013
 20
0.0632859869
 10
-0.049309655
 20
0.0464160518
 10
-0.0526548952
 20
0.0289060937
 10
-0.0551657834
 20
0.0109929047
 10
-0.0568083641
 20
-0.00708127
 10
-0.0575604242
 20
-0.0250720081
 10
-0.0574117933
 20
-0.0427360159
 10
-0.0563644814
 20
-0.0598344178
 10
-0.0544326517
 20
-0.0761359875
 10
-0.0516424288
 20
-0.091420274
 10
-0.0480315457
 20
-0.1054805836
 10
-0.0436488334
 20
-0.1181267748
 10
-0.0385535606
 20
-0.1291878296
 10
-0.032814632
 20
-0.1385141661
 10
-0.0265096569
 20
-0.1459796616
 10
-0.0197238992
 20
-0.1514833581
 10
-0.0125491247
 20
-0.1549508276
 10
-0.00661198
 20
-0.1562244862
  0
LWPOLYLINE
  5
10F
330
1F
100
AcDbEntity
  8
0
  6
Continuous
 62
     7
370
    25
100
AcDbPolyline
 90
       10
 70
   128
 43
0.0
 10
0.0246970755
 20
0.1544016283
 10
0.0231674553
 20
0.1545123207
 10
0.0155096753
 20
0.153794832
 10
0.0077644385
 20
0.1509852065
 10
0.0000364859
 20
0.1461214396
 10
-0.0075696751
 20
0.1392693054
 10
-0.0149511843
 20
0.1305214672
 10
-0.0220082195
 20
0.1199962246
 10
-0.0286453463
 20
0.1078359133
 10
-0.034772809
 20
0.0942049809
  0
LWPOLYLINE
  5
112
330
1F
100
AcDbEntity
  8
0
  6
Continuous
 62
     7
370
    25
100
AcDbPolyline
 90
       13
 70
   128
 43
0.0
 10
1.9735673013
 20
-0.116124527
 10
1.9793858537
 20
-0.1032283699
 10
1.9857028195
 20
-0.0917864378
 10
1.9924260831
 20
-0.0819655798
 10
1.9994576041
 20
-0.0739090061
 10
2.0066948472
 20
-0.0677341997
 10
2.014032277
 20
-0.0635312032
 10
2.0213628972
 20
-0.0613613057
 10
2.0285798111
 20
-0.0612561493
 10
2.0355777796
 20
-0.0632172674
 10
2.0422547567
 20
-0.0672160623
 10
2.0485133769
 20
-0.0731942228
 10
2.050758314
 20
-0.0759618521
  0
LWPOLYLINE
  5
113
330
1F
100
AcDbEntity
  8
0
  6
Continuous
 62
     7
370
    25
100
AcDbPolyline
 90
       23
 70
   128
 43
0.0
 10
2.024667721
 20
-0.3348141051
 10
2.0204357623
 20
-0.3381738985
 10
2.0130983325
 20
-0.342376895
 10
2.0057677122
 20
-0.3445467925
 10
1.9985507984
 20
-0.3446519489
 10
1.9915528299
 20
-0.3426908308
 10
1.9848758528
 20
-0.3386920359
 10
1.9786172325
 20
-0.3327138754
 10
1.9728682339
 20
-0.3248435244
 10
1.9677126901
 20
-0.3151957505
 10
1.9632257808
 20
-0.3039112397
 10
1.959472935
 20
-0.2911545459
 10
1.9565088778
 20
-0.2771116901
 10
1.9543768318
 20
-0.261987449
 10
1.953107887
 20
-0.2460023679
 10
1.9527205475
 20
-0.2293895455
 10
1.9532204616
 20
-0.2123912339
 10
1.9546003393
 20
-0.195255307
 10
1.9568400591
 20
-0.1782316451
 10
1.9599069606
 20
-0.1615684914
 10
1.9637563217
 20
-0.1455088324
 10
1.9683320098
 20
-0.1302868541
 10
1.9735673013
 20
-0.116124527
  0
LINE
  5
116
330
1F
100
AcDbEntity
  8
0
  6
Continuous
 62
     7
370
    25
100
AcDbLine
 10
2.7060470343
 20
-0.1295296006
 30
0.0
 11
2.6978265364
 21
-0.1287010288
 31
0.0
  0
LINE
  5
117
330
1F
100
AcDbEntity
  8
0
  6
Continuous
 62
     7
370
    25
100
AcDbLine
 10
2.6692452398
 20
-0.412264266
 30
0.0
 11
2.6774657378
 21
-0.4130928378
 31
0.0
  0
LINE
  5
118
330
1F
100
AcDbEntity
  8
0
  6
Continuous
 62
     7
370
    25
100
AcDbLine
 10
2.644553692
 20
-0.1812110347
 30
0.0
 11
2.6358477195
 21
-0.2017667857
 31
0.0
  0
LINE
  5
119
330
1F
100
AcDbEntity
  8
0
  6
Continuous
 62
     7
370
    25
100
AcDbLine
 10
2.6230940377
 20
-0.3282997193
 30
0.0
 11
2.6275228032
 21
-0.3501793649
 31
0.0
  0
LINE
  5
11A
330
1F
100
AcDbEntity
  8
0
  6
Continuous
 62
     7
370
    25
100
AcDbLine
 10
2.6495311109
 20
-0.1238331697
 30
0.0
 11
2.641310613
 21
-0.123004598
 31
0.0
  0
LINE
  5
11B
330
1F
100
AcDbEntity
  8
0
  6
Continuous
 62
     7
370
    25
100
AcDbLine
 10
2.6127293164
 20
-0.4065678352
 30
0.0
 11
2.6209498143
 21
-0.4073964069
 31
0.0
  0
LINE
  5
11C
330
1F
100
AcDbEntity
  8
0
  6
Continuous
 62
     7
370
    25
100
AcDbLine
 10
2.5880377686
 20
-0.1755146039
 30
0.0
 11
2.5793317961
 21
-0.1960703548
 31
0.0
  0
LINE
  5
11D
330
1F
100
AcDbEntity
  8
0
  6
Continuous
 62
     7
370
    25
100
AcDbLine
 10
2.5665781143
 20
-0.3226032885
 30
0.0
 11
2.5710068798
 21
-0.344482934
 31
0.0
  0
LINE
  5
11E
330
1F
100
AcDbEntity
  8
0
  6
Continuous
 62
     7
370
    25
100
AcDbLine
 10
2.6995508699
 20
-0.3793495095
 30
0.0
 11
2.7020626888
 21
-0.3796026842
 31
0.0
  0
LINE
  5
11F
330
1F
100
AcDbEntity
  8
0
  6
Continuous
 62
     7
370
    25
100
AcDbLine
 10
2.7234659618
 20
-0.1672546765
 30
0.0
 11
2.720954143
 21
-0.1670015018
 31
0.0
  0
LINE
  5
120
330
1F
100
AcDbEntity
  8
0
  6
Continuous
 62
     7
370
    25
100
AcDbLine
 10
2.5930151875
 20
-0.1181367389
 30
0.0
 11
2.5847946895
 21
-0.1173081671
 31
0.0
  0
LINE
  5
121
330
1F
100
AcDbEntity
  8
0
  6
Continuous
 62
     7
370
    25
100
AcDbLine
 10
2.5562133929
 20
-0.4008714043
 30
0.0
 11
2.5644338909
 21
-0.4016999761
 31
0.0
  0
LINE
  5
122
330
1F
100
AcDbEntity
  8
0
  6
Continuous
 62
     7
370
    25
100
AcDbLine
 10
2.5315218451
 20
-0.169818173
 30
0.0
 11
2.5228158727
 21
-0.190373924
 31
0.0
  0
LINE
  5
123
330
1F
100
AcDbEntity
  8
0
  6
Continuous
 62
     7
370
    25
100
AcDbLine
 10
2.5100621908
 20
-0.3169068576
 30
0.0
 11
2.5144909563
 21
-0.3387865032
 31
0.0
  0
LINE
  5
124
330
1F
100
AcDbEntity
  8
0
  6
Continuous
 62
     7
370
    25
100
AcDbLine
 10
2.536499264
 20
-0.1124403081
 30
0.0
 11
2.5282787661
 21
-0.1116117363
 31
0.0
  0
LINE
  5
125
330
1F
100
AcDbEntity
  8
0
  6
Continuous
 62
     7
370
    25
100
AcDbLine
 10
2.4996974695
 20
-0.3951749735
 30
0.0
 11
2.5079179674
 21
-0.3960035453
 31
0.0
  0
LINE
  5
126
330
1F
100
AcDbEntity
  8
0
  6
Continuous
 62
     7
370
    25
100
AcDbLine
 10
2.4750059217
 20
-0.1641217422
 30
0.0
 11
2.4662999492
 21
-0.1846774931
 31
0.0
  0
LINE
  5
127
330
1F
100
AcDbEntity
  8
0
  6
Continuous
 62
     7
370
    25
100
AcDbLine
 10
2.4535462674
 20
-0.3112104268
 30
0.0
 11
2.4579750329
 21
-0.3330900724
 31
0.0
  0
LINE
  5
128
330
1F
100
AcDbEntity
  8
0
  6
Continuous
 62
     7
370
    25
100
AcDbLine
 10
2.4799833406
 20
-0.1067438772
 30
0.0
 11
2.4717628426
 21
-0.1059153055
 31
0.0
  0
LINE
  5
129
330
1F
100
AcDbEntity
  8
0
  6
Continuous
 62
     7
370
    25
100
AcDbLine
 10
2.443181546
 20
-0.3894785427
 30
0.0
 11
2.451402044
 21
-0.3903071144
 31
0.0
  0
LINE
  5
12A
330
1F
100
AcDbEntity
  8
0
  6
Continuous
 62
     7
370
    25
100
AcDbLine
 10
2.4184899982
 20
-0.1584253113
 30
0.0
 11
2.4097840258
 21
-0.1789810623
 31
0.0
  0
LINE
  5
12B
330
1F
100
AcDbEntity
  8
0
  6
Continuous
 62
     7
370
    25
100
AcDbLine
 10
2.3970303439
 20
-0.3055139959
 30
0.0
 11
2.4014591094
 21
-0.3273936415
 31
0.0
  0
LINE
  5
12C
330
1F
100
AcDbEntity
  8
0
  6
Continuous
 62
     7
370
    25
100
AcDbLine
 10
2.4234674171
 20
-0.1010474464
 30
0.0
 11
2.4152469192
 21
-0.1002188746
 31
0.0
  0
LINE
  5
12D
330
1F
100
AcDbEntity
  8
0
  6
Continuous
 62
     7
370
    25
100
AcDbLine
 10
2.3866656226
 20
-0.3837821118
 30
0.0
 11
2.3948861205
 21
-0.3846106836
 31
0.0
  0
LINE
  5
12E
330
1F
100
AcDbEntity
  8
0
  6
Continuous
 62
     7
370
    25
100
AcDbLine
 10
2.3619740748
 20
-0.1527288805
 30
0.0
 11
2.3532681023
 21
-0.1732846315
 31
0.0
  0
LINE
  5
12F
330
1F
100
AcDbEntity
  8
0
  6
Continuous
 62
     7
370
    25
100
AcDbLine
 10
2.3405144205
 20
-0.2998175651
 30
0.0
 11
2.344943186
 21
-0.3216972107
 31
0.0
  0
LINE
  5
130
330
1F
100
AcDbEntity
  8
0
  6
Continuous
 62
     7
370
    25
100
AcDbLine
 10
2.3669514937
 20
-0.0953510155
 30
0.0
 11
2.3587309957
 21
-0.0945224438
 31
0.0
  0
LINE
  5
131
330
1F
100
AcDbEntity
  8
0
  6
Continuous
 62
     7
370
    25
100
AcDbLine
 10
2.3301496992
 20
-0.378085681
 30
0.0
 11
2.3383701971
 21
-0.3789142527
 31
0.0
  0
LINE
  5
132
330
1F
100
AcDbEntity
  8
0
  6
Continuous
 62
     7
370
    25
100
AcDbLine
 10
2.3054581513
 20
-0.1470324497
 30
0.0
 11
2.2967521789
 21
-0.1675882006
 31
0.0
  0
LINE
  5
133
330
1F
100
AcDbEntity
  8
0
  6
Continuous
 62
     7
370
    25
100
AcDbLine
 10
2.2839984971
 20
-0.2941211343
 30
0.0
 11
2.2884272625
 21
-0.3160007798
 31
0.0
  0
LINE
  5
134
330
1F
100
AcDbEntity
  8
0
  6
Continuous
 62
     7
370
    25
100
AcDbLine
 10
2.3104355702
 20
-0.0896545847
 30
0.0
 11
2.3022150723
 21
-0.0888260129
 31
0.0
  0
LINE
  5
135
330
1F
100
AcDbEntity
  8
0
  6
Continuous
 62
     7
370
    25
100
AcDbLine
 10
2.2736337757
 20
-0.3723892501
 30
0.0
 11
2.2818542737
 21
-0.3732178219
 31
0.0
  0
LINE
  5
136
330
1F
100
AcDbEntity
  8
0
  6
Continuous
 62
     7
370
    25
100
AcDbLine
 10
2.2489422279
 20
-0.1413360188
 30
0.0
 11
2.2402362554
 21
-0.1618917698
 31
0.0
  0
LINE
  5
137
330
1F
100
AcDbEntity
  8
0
  6
Continuous
 62
     7
370
    25
100
AcDbLine
 10
2.2274825736
 20
-0.2884247034
 30
0.0
 11
2.2319113391
 21
-0.310304349
 31
0.0
  0
LINE
  5
138
330
1F
100
AcDbEntity
  8
0
  6
Continuous
 62
     7
370
    25
100
AcDbLine
 10
2.2539196468
 20
-0.0839581539
 30
0.0
 11
2.2456991488
 21
-0.0831295821
 31
0.0
  0
LINE
  5
139
330
1F
100
AcDbEntity
  8
0
  6
Continuous
 62
     7
370
    25
100
AcDbLine
 10
2.2171178523
 20
-0.3666928193
 30
0.0
 11
2.2253383502
 21
-0.3675213911
 31
0.0
  0
LINE
  5
13A
330
1F
100
AcDbEntity
  8
0
  6
Continuous
 62
     7
370
    25
100
AcDbLine
 10
2.1924263045
 20
-0.135639588
 30
0.0
 11
2.183720332
 21
-0.1561953389
 31
0.0
  0
LINE
  5
13B
330
1F
100
AcDbEntity
  8
0
  6
Continuous
 62
     7
370
    25
100
AcDbLine
 10
2.1709666502
 20
-0.2827282726
 30
0.0
 11
2.1753954157
 21
-0.3046079182
 31
0.0
  0
LINE
  5
13C
330
1F
100
AcDbEntity
  8
0
  6
Continuous
 62
     7
370
    25
100
AcDbLine
 10
2.1974037234
 20
-0.078261723
 30
0.0
 11
2.1891832254
 21
-0.0774331513
 31
0.0
  0
LINE
  5
13D
330
1F
100
AcDbEntity
  8
0
  6
Continuous
 62
     7
370
    25
100
AcDbLine
 10
2.1606019288
 20
-0.3609963885
 30
0.0
 11
2.1688224268
 21
-0.3618249602
 31
0.0
  0
LINE
  5
13E
330
1F
100
AcDbEntity
  8
0
  6
Continuous
 62
     7
370
    25
100
AcDbLine
 10
2.135910381
 20
-0.1299431571
 30
0.0
 11
2.1272044086
 21
-0.1504989081
 31
0.0
  0
LINE
  5
13F
330
1F
100
AcDbEntity
  8
0
  6
Continuous
 62
     7
370
    25
100
AcDbLine
 10
2.1144507267
 20
-0.2770318417
 30
0.0
 11
2.1188794922
 21
-0.2989114873
 31
0.0
  0
LINE
  5
140
330
1F
100
AcDbEntity
  8
0
  6
Continuous
 62
     7
370
    25
100
AcDbLine
 10
2.1408877999
 20
-0.0725652922
 30
0.0
 11
2.132667302
 21
-0.0717367204
 31
0.0
  0
LINE
  5
141
330
1F
100
AcDbEntity
  8
0
  6
Continuous
 62
     7
370
    25
100
AcDbLine
 10
2.1040860054
 20
-0.3552999576
 30
0.0
 11
2.1123065033
 21
-0.3561285294
 31
0.0
  0
LINE
  5
142
330
1F
100
AcDbEntity
  8
0
  6
Continuous
 62
     7
370
    25
100
AcDbLine
 10
2.0793944576
 20
-0.1242467263
 30
0.0
 11
2.0706884851
 21
-0.1448024773
 31
0.0
  0
LINE
  5
143
330
1F
100
AcDbEntity
  8
0
  6
Continuous
 62
     7
370
    25
100
AcDbLine
 10
2.0579348033
 20
-0.2713354109
 30
0.0
 11
2.0623635688
 21
-0.2932150565
 31
0.0
  0
LINE
  5
144
330
1F
100
AcDbEntity
  8
0
  6
Continuous
 62
     7
370
    25
100
AcDbLine
 10
2.0843718765
 20
-0.0668688613
 30
0.0
 11
2.0761513785
 21
-0.0660402896
 31
0.0
  0
LINE
  5
145
330
1F
100
AcDbEntity
  8
0
  6
Continuous
 62
     7
370
    25
100
AcDbLine
 10
2.0475700819
 20
-0.3496035268
 30
0.0
 11
2.0557905799
 21
-0.3504320985
 31
0.0
  0
LINE
  5
146
330
1F
100
AcDbEntity
  8
0
  6
Continuous
 62
     7
370
    25
100
AcDbLine
 10
2.0228785341
 20
-0.1185502955
 30
0.0
 11
2.0141725617
 21
-0.1391060464
 31
0.0
  0
LINE
  5
147
330
1F
100
AcDbEntity
  8
0
  6
Continuous
 62
     7
370
    25
100
AcDbLine
 10
2.0014188798
 20
-0.2656389801
 30
0.0
 11
2.0058476453
 21
-0.2875186256
 31
0.0
  0
LINE
  5
148
330
1F
100
AcDbEntity
  8
0
  6
Continuous
 62
     7
370
    25
100
AcDbLine
 10
2.012610773
 20
-0.0459669086
 30
0.0
 11
0.0246970755
 21
0.1544016283
 31
0.0
  0
LINE
  5
149
330
1F
100
AcDbEntity
  8
0
  6
Continuous
 62
     7
370
    25
100
AcDbLine
 10
-0.00661198
 20
-0.1562244862
 30
0.0
 11
1.9813017176
 21
-0.3565930232
 31
0.0
  0
LINE
  5
14A
330
1F
100
AcDbEntity
  8
0
  6
Continuous
 62
     7
370
    25
100
AcDbLine
 10
2.027855953
 20
-0.0611724305
 30
0.0
 11
2.0235447585
 21
-0.0607378906
 31
0.0
  0
LINE
  5
14B
330
1F
100
AcDbEntity
  8
0
  6
Continuous
 62
     7
370
    25
100
AcDbLine
 10
1.994963462
 20
-0.3443011278
 30
0.0
 11
1.9992746564
 21
-0.3447356677
 31
0.0
  0
LINE
  5
14C
330
1F
100
AcDbEntity
  8
0
  6
Continuous
 62
     7
370
    25
100
AcDbLine
 10
-0.006787395
 20
0.1400720162
 30
0.0
 11
-0.0148158529
 21
0.1319518343
 31
0.0
  0
LINE
  5
14D
330
1F
100
AcDbEntity
  8
0
  6
Continuous
 62
     7
370
    25
100
AcDbLine
 10
-0.0408500681
 20
-0.1263410781
 30
0.0
 11
-0.0346035551
 21
-0.1359000825
 31
0.0
  0
LINE
  5
14E
330
1F
100
AcDbEntity
  8
0
  6
Continuous
 62
     7
370
    25
100
AcDbLine
 10
2.6350870262
 20
-0.2035955597
 30
0.0
 11
2.6358477195
 21
-0.2017667857
 31
0.0
  0
LINE
  5
14F
330
1F
100
AcDbEntity
  8
0
  6
Continuous
 62
     7
370
    25
100
AcDbLine
 10
2.5785711028
 20
-0.1978991288
 30
0.0
 11
2.5793317961
 21
-0.1960703548
 31
0.0
  0
LINE
  5
150
330
1F
100
AcDbEntity
  8
0
  6
Continuous
 62
     7
370
    25
100
AcDbLine
 10
2.5220551793
 20
-0.192202698
 30
0.0
 11
2.5228158727
 21
-0.190373924
 31
0.0
  0
LINE
  5
151
330
1F
100
AcDbEntity
  8
0
  6
Continuous
 62
     7
370
    25
100
AcDbLine
 10
2.4655392559
 20
-0.1865062672
 30
0.0
 11
2.4662999492
 21
-0.1846774931
 31
0.0
  0
LINE
  5
152
330
1F
100
AcDbEntity
  8
0
  6
Continuous
 62
     7
370
    25
100
AcDbLine
 10
2.4090233324
 20
-0.1808098363
 30
0.0
 11
2.4097840258
 21
-0.1789810623
 31
0.0
  0
LINE
  5
153
330
1F
100
AcDbEntity
  8
0
  6
Continuous
 62
     7
370
    25
100
AcDbLine
 10
2.352507409
 20
-0.1751134055
 30
0.0
 11
2.3532681023
 21
-0.1732846315
 31
0.0
  0
LINE
  5
154
330
1F
100
AcDbEntity
  8
0
  6
Continuous
 62
     7
370
    25
100
AcDbLine
 10
2.2959914856
 20
-0.1694169746
 30
0.0
 11
2.2967521789
 21
-0.1675882006
 31
0.0
  0
LINE
  5
155
330
1F
100
AcDbEntity
  8
0
  6
Continuous
 62
     7
370
    25
100
AcDbLine
 10
2.2394755621
 20
-0.1637205438
 30
0.0
 11
2.2402362554
 21
-0.1618917698
 31
0.0
  0
LINE
  5
156
330
1F
100
AcDbEntity
  8
0
  6
Continuous
 62
     7
370
    25
100
AcDbLine
 10
2.1829596387
 20
-0.158024113
 30
0.0
 11
2.183720332
 21
-0.1561953389
 31
0.0
  0
LINE
  5
157
330
1F
100
AcDbEntity
  8
0
  6
Continuous
 62
     7
370
    25
100
AcDbLine
 10
2.1264437152
 20
-0.1523276821
 30
0.0
 11
2.1272044086
 21
-0.1504989081
 31
0.0
  0
LINE
  5
158
330
1F
100
AcDbEntity
  8
0
  6
Continuous
 62
     7
370
    25
100
AcDbLine
 10
2.0699277918
 20
-0.1466312513
 30
0.0
 11
2.0706884851
 21
-0.1448024773
 31
0.0
  0
LINE
  5
159
330
1F
100
AcDbEntity
  8
0
  6
Continuous
 62
     7
370
    25
100
AcDbLine
 10
2.0134118683
 20
-0.1409348204
 30
0.0
 11
2.0141725617
 21
-0.1391060464
 31
0.0
  0
ARC
  5
15A
330
1F
100
AcDbEntity
  8
0
  6
Continuous
 62
     7
370
    25
100
AcDbCircle
 10
2.7115940086
 20
-0.1965949409
 30
0.0
 40
0.0692757287450006
100
AcDbArc
 50
101.4629614647
 51
169.2329714931
  0
ARC
  5
15B
330
1F
100
AcDbEntity
  8
0
  6
Continuous
 62
     7
370
    25
100
AcDbCircle
 10
2.8509665245
 20
-0.2872857908
 30
0.0
 40
0.2315340419452341
100
AcDbArc
 50
158.8101301814
 51
190.2032140664
  0
ARC
  5
15C
330
1F
100
AcDbEntity
  8
0
  6
Continuous
 62
     7
370
    25
100
AcDbCircle
 10
2.6900850785
 20
-0.2219078992
 30
0.0
 40
0.0690957290245753
100
AcDbArc
 50
122.2341943806
 51
163.6492322344
  0
ARC
  5
15D
330
1F
100
AcDbEntity
  8
0
  6
Continuous
 62
     7
370
    25
100
AcDbCircle
 10
2.7766889418
 20
-0.2781341928
 30
0.0
 40
0.1706080805475273
100
AcDbArc
 50
153.6676314836
 51
212.3017449623
  0
ARC
  5
15E
330
1F
100
AcDbEntity
  8
0
  6
Continuous
 62
     7
370
    25
100
AcDbCircle
 10
2.6550780851
 20
-0.1908985101
 30
0.0
 40
0.0692757287450007
100
AcDbArc
 50
101.4629614647
 51
169.2329714931
  0
ARC
  5
15F
330
1F
100
AcDbEntity
  8
0
  6
Continuous
 62
     7
370
    25
100
AcDbCircle
 10
2.7944506011
 20
-0.28158936
 30
0.0
 40
0.2315340419452341
100
AcDbArc
 50
158.8101301814
 51
190.2032140664
  0
ARC
  5
160
330
1F
100
AcDbEntity
  8
0
  6
Continuous
 62
     7
370
    25
100
AcDbCircle
 10
2.6335691551
 20
-0.2162114684
 30
0.0
 40
0.0690957290246274
100
AcDbArc
 50
122.2341943806
 51
163.6492322344
  0
ARC
  5
161
330
1F
100
AcDbEntity
  8
0
  6
Continuous
 62
     7
370
    25
100
AcDbCircle
 10
2.7201730183
 20
-0.2724377619
 30
0.0
 40
0.1706080805475861
100
AcDbArc
 50
153.6676314836
 51
212.3017449623
  0
ARC
  5
162
330
1F
100
AcDbEntity
  8
0
  6
Continuous
 62
     7
370
    25
100
AcDbCircle
 10
2.5985621617
 20
-0.1852020793
 30
0.0
 40
0.0692757287450006
100
AcDbArc
 50
101.4629614647
 51
169.2329714931
  0
ARC
  5
163
330
1F
100
AcDbEntity
  8
0
  6
Continuous
 62
     7
370
    25
100
AcDbCircle
 10
2.7379346777
 20
-0.2758929291
 30
0.0
 40
0.2315340419452346
100
AcDbArc
 50
158.8101301814
 51
190.2032140664
  0
ARC
  5
164
330
1F
100
AcDbEntity
  8
0
  6
Continuous
 62
     7
370
    25
100
AcDbCircle
 10
2.5770532316
 20
-0.2105150375
 30
0.0
 40
0.0690957290245993
100
AcDbArc
 50
122.2341943806
 51
163.6492322344
  0
ARC
  5
165
330
1F
100
AcDbEntity
  8
0
  6
Continuous
 62
     7
370
    25
100
AcDbCircle
 10
2.6636570949
 20
-0.2667413311
 30
0.0
 40
0.170608080547543
100
AcDbArc
 50
153.6676314836
 51
212.3017449623
  0
ARC
  5
166
330
1F
100
AcDbEntity
  8
0
  6
Continuous
 62
     7
370
    25
100
AcDbCircle
 10
2.5420462382
 20
-0.1795056484
 30
0.0
 40
0.0692757287450007
100
AcDbArc
 50
101.4629614647
 51
169.2329714931
  0
ARC
  5
167
330
1F
100
AcDbEntity
  8
0
  6
Continuous
 62
     7
370
    25
100
AcDbCircle
 10
2.6814187542
 20
-0.2701964983
 30
0.0
 40
0.2315340419452286
100
AcDbArc
 50
158.8101301814
 51
190.2032140664
  0
ARC
  5
168
330
1F
100
AcDbEntity
  8
0
  6
Continuous
 62
     7
370
    25
100
AcDbCircle
 10
2.5205373082
 20
-0.2048186067
 30
0.0
 40
0.0690957290246296
100
AcDbArc
 50
122.2341943807
 51
163.6492322344
  0
ARC
  5
169
330
1F
100
AcDbEntity
  8
0
  6
Continuous
 62
     7
370
    25
100
AcDbCircle
 10
2.6071411715
 20
-0.2610449003
 30
0.0
 40
0.1706080805476136
100
AcDbArc
 50
153.6676314836
 51
212.3017449623
  0
ARC
  5
16A
330
1F
100
AcDbEntity
  8
0
  6
Continuous
 62
     7
370
    25
100
AcDbCircle
 10
2.4855303148
 20
-0.1738092176
 30
0.0
 40
0.0692757287450007
100
AcDbArc
 50
101.4629614647
 51
169.2329714931
  0
ARC
  5
16B
330
1F
100
AcDbEntity
  8
0
  6
Continuous
 62
     7
370
    25
100
AcDbCircle
 10
2.6249028308
 20
-0.2645000674
 30
0.0
 40
0.231534041945231
100
AcDbArc
 50
158.8101301814
 51
190.2032140664
  0
ARC
  5
16C
330
1F
100
AcDbEntity
  8
0
  6
Continuous
 62
     7
370
    25
100
AcDbCircle
 10
2.4640213848
 20
-0.1991221758
 30
0.0
 40
0.0690957290246658
100
AcDbArc
 50
122.2341943807
 51
163.6492322344
  0
ARC
  5
16D
330
1F
100
AcDbEntity
  8
0
  6
Continuous
 62
     7
370
    25
100
AcDbCircle
 10
2.550625248
 20
-0.2553484694
 30
0.0
 40
0.1706080805476331
100
AcDbArc
 50
153.6676314836
 51
212.3017449622
  0
ARC
  5
16E
330
1F
100
AcDbEntity
  8
0
  6
Continuous
 62
     7
370
    25
100
AcDbCircle
 10
2.4290143914
 20
-0.1681127867
 30
0.0
 40
0.0692757287450005
100
AcDbArc
 50
101.4629614647
 51
169.2329714931
  0
ARC
  5
16F
330
1F
100
AcDbEntity
  8
0
  6
Continuous
 62
     7
370
    25
100
AcDbCircle
 10
2.5683869073
 20
-0.2588036366
 30
0.0
 40
0.2315340419452211
100
AcDbArc
 50
158.8101301814
 51
190.2032140664
  0
ARC
  5
170
330
1F
100
AcDbEntity
  8
0
  6
Continuous
 62
     7
370
    25
100
AcDbCircle
 10
2.4075054613
 20
-0.193425745
 30
0.0
 40
0.069095729024645
100
AcDbArc
 50
122.2341943807
 51
163.6492322344
  0
ARC
  5
171
330
1F
100
AcDbEntity
  8
0
  6
Continuous
 62
     7
370
    25
100
AcDbCircle
 10
2.4941093246
 20
-0.2496520386
 30
0.0
 40
0.1706080805476027
100
AcDbArc
 50
153.6676314836
 51
212.3017449623
  0
ARC
  5
172
330
1F
100
AcDbEntity
  8
0
  6
Continuous
 62
     7
370
    25
100
AcDbCircle
 10
2.3724984679
 20
-0.1624163559
 30
0.0
 40
0.0692757287450005
100
AcDbArc
 50
101.4629614647
 51
169.2329714931
  0
ARC
  5
173
330
1F
100
AcDbEntity
  8
0
  6
Continuous
 62
     7
370
    25
100
AcDbCircle
 10
2.5118709839
 20
-0.2531072058
 30
0.0
 40
0.2315340419452301
100
AcDbArc
 50
158.8101301814
 51
190.2032140664
  0
ARC
  5
174
330
1F
100
AcDbEntity
  8
0
  6
Continuous
 62
     7
370
    25
100
AcDbCircle
 10
2.3509895379
 20
-0.1877293142
 30
0.0
 40
0.0690957290246648
100
AcDbArc
 50
122.2341943807
 51
163.6492322344
  0
ARC
  5
175
330
1F
100
AcDbEntity
  8
0
  6
Continuous
 62
     7
370
    25
100
AcDbCircle
 10
2.4375934011
 20
-0.2439556077
 30
0.0
 40
0.1706080805476194
100
AcDbArc
 50
153.6676314836
 51
212.3017449622
  0
ARC
  5
176
330
1F
100
AcDbEntity
  8
0
  6
Continuous
 62
     7
370
    25
100
AcDbCircle
 10
2.3159825445
 20
-0.1567199251
 30
0.0
 40
0.0692757287450006
100
AcDbArc
 50
101.4629614647
 51
169.2329714931
  0
ARC
  5
177
330
1F
100
AcDbEntity
  8
0
  6
Continuous
 62
     7
370
    25
100
AcDbCircle
 10
2.4553550604
 20
-0.2474107749
 30
0.0
 40
0.231534041945231
100
AcDbArc
 50
158.8101301814
 51
190.2032140664
  0
ARC
  5
178
330
1F
100
AcDbEntity
  8
0
  6
Continuous
 62
     7
370
    25
100
AcDbCircle
 10
2.2944736144
 20
-0.1820328833
 30
0.0
 40
0.0690957290247116
100
AcDbArc
 50
122.2341943807
 51
163.6492322344
  0
ARC
  5
179
330
1F
100
AcDbEntity
  8
0
  6
Continuous
 62
     7
370
    25
100
AcDbCircle
 10
2.3810774777
 20
-0.2382591769
 30
0.0
 40
0.1706080805476979
100
AcDbArc
 50
153.6676314836
 51
212.3017449622
  0
ARC
  5
17A
330
1F
100
AcDbEntity
  8
0
  6
Continuous
 62
     7
370
    25
100
AcDbCircle
 10
2.259466621
 20
-0.1510234942
 30
0.0
 40
0.0692757287450001
100
AcDbArc
 50
101.4629614647
 51
169.2329714931
  0
ARC
  5
17B
330
1F
100
AcDbEntity
  8
0
  6
Continuous
 62
     7
370
    25
100
AcDbCircle
 10
2.398839137
 20
-0.2417143441
 30
0.0
 40
0.2315340419452306
100
AcDbArc
 50
158.8101301814
 51
190.2032140664
  0
ARC
  5
17C
330
1F
100
AcDbEntity
  8
0
  6
Continuous
 62
     7
370
    25
100
AcDbCircle
 10
2.237957691
 20
-0.1763364525
 30
0.0
 40
0.0690957290246171
100
AcDbArc
 50
122.2341943806
 51
163.6492322344
  0
ARC
  5
17D
330
1F
100
AcDbEntity
  8
0
  6
Continuous
 62
     7
370
    25
100
AcDbCircle
 10
2.3245615542
 20
-0.2325627461
 30
0.0
 40
0.1706080805475626
100
AcDbArc
 50
153.6676314836
 51
212.3017449623
  0
ARC
  5
17E
330
1F
100
AcDbEntity
  8
0
  6
Continuous
 62
     7
370
    25
100
AcDbCircle
 10
2.2029506976
 20
-0.1453270634
 30
0.0
 40
0.0692757287450006
100
AcDbArc
 50
101.4629614647
 51
169.2329714931
  0
ARC
  5
17F
330
1F
100
AcDbEntity
  8
0
  6
Continuous
 62
     7
370
    25
100
AcDbCircle
 10
2.3423232135
 20
-0.2360179132
 30
0.0
 40
0.231534041945231
100
AcDbArc
 50
158.8101301814
 51
190.2032140664
  0
ARC
  5
180
330
1F
100
AcDbEntity
  8
0
  6
Continuous
 62
     7
370
    25
100
AcDbCircle
 10
2.1814417675
 20
-0.1706400216
 30
0.0
 40
0.069095729024618
100
AcDbArc
 50
122.2341943806
 51
163.6492322344
  0
ARC
  5
181
330
1F
100
AcDbEntity
  8
0
  6
Continuous
 62
     7
370
    25
100
AcDbCircle
 10
2.2680456308
 20
-0.2268663152
 30
0.0
 40
0.1706080805475335
100
AcDbArc
 50
153.6676314836
 51
212.3017449623
  0
ARC
  5
182
330
1F
100
AcDbEntity
  8
0
  6
Continuous
 62
     7
370
    25
100
AcDbCircle
 10
2.1464347741
 20
-0.1396306325
 30
0.0
 40
0.0692757287450005
100
AcDbArc
 50
101.4629614647
 51
169.2329714931
  0
ARC
  5
183
330
1F
100
AcDbEntity
  8
0
  6
Continuous
 62
     7
370
    25
100
AcDbCircle
 10
2.2858072901
 20
-0.2303214824
 30
0.0
 40
0.2315340419452306
100
AcDbArc
 50
158.8101301814
 51
190.2032140664
  0
ARC
  5
184
330
1F
100
AcDbEntity
  8
0
  6
Continuous
 62
     7
370
    25
100
AcDbCircle
 10
2.1249258441
 20
-0.1649435908
 30
0.0
 40
0.0690957290246492
100
AcDbArc
 50
122.2341943807
 51
163.6492322344
  0
ARC
  5
185
330
1F
100
AcDbEntity
  8
0
  6
Continuous
 62
     7
370
    25
100
AcDbCircle
 10
2.2115297073
 20
-0.2211698844
 30
0.0
 40
0.1706080805476194
100
AcDbArc
 50
153.6676314836
 51
212.3017449622
  0
ARC
  5
186
330
1F
100
AcDbEntity
  8
0
  6
Continuous
 62
     7
370
    25
100
AcDbCircle
 10
2.0899188507
 20
-0.1339342017
 30
0.0
 40
0.0692757287450006
100
AcDbArc
 50
101.4629614647
 51
169.2329714931
  0
ARC
  5
187
330
1F
100
AcDbEntity
  8
0
  6
Continuous
 62
     7
370
    25
100
AcDbCircle
 10
2.2292913667
 20
-0.2246250516
 30
0.0
 40
0.2315340419452306
100
AcDbArc
 50
158.8101301814
 51
190.2032140664
  0
ARC
  5
188
330
1F
100
AcDbEntity
  8
0
  6
Continuous
 62
     7
370
    25
100
AcDbCircle
 10
2.0684099206
 20
-0.15924716
 30
0.0
 40
0.0690957290246427
100
AcDbArc
 50
122.2341943807
 51
163.6492322344
  0
ARC
  5
189
330
1F
100
AcDbEntity
  8
0
  6
Continuous
 62
     7
370
    25
100
AcDbCircle
 10
2.1550137839
 20
-0.2154734535
 30
0.0
 40
0.1706080805476016
100
AcDbArc
 50
153.6676314836
 51
212.3017449623
  0
ARC
  5
18A
330
1F
100
AcDbEntity
  8
0
  6
Continuous
 62
     7
370
    25
100
AcDbCircle
 10
0.0834848433
 20
0.0425194555
 30
0.0
 40
0.1328953620561789
100
AcDbArc
 50
137.7045831258
 51
159.5171594162
  0
ARC
  5
18B
330
1F
100
AcDbEntity
  8
0
  6
Continuous
 62
     7
370
    25
100
AcDbCircle
 10
0.2072384114
 20
-0.0184764442
 30
0.0
 40
0.27052296189543
100
AcDbArc
 50
156.5857071052
 51
203.4985807394
  0
ENDSEC
  0
SECTION
  2
OBJECTS
  0
DICTIONARY
  5
C
330
0
100
AcDbDictionary
281
     1
  3
ACAD_GROUP
350
D
  3
ACAD_LAYOUT
350
1A
  3
ACAD_MLINESTYLE
350
17
  3
ACAD_PLOTSETTINGS
350
19
  3
ACAD_PLOTSTYLENAME
350
E
  3
ACAD_SCALELIST
350
47
  3
DWGPROPS
350
18C
  0
DICTIONARY
  5
D
102
{ACAD_REACTORS
330
C
102
}
330
C
100
AcDbDictionary
281
     1
  0
DICTIONARY
  5
1A
102
{ACAD_REACTORS
330
C
102
}
330
C
100
AcDbDictionary
281
     1
  3
Layout1
350
1E
  3
Layout2
350
26
  3
Model
350
22
  0
DICTIONARY
  5
17
102
{ACAD_REACTORS
330
C
102
}
330
C
100
AcDbDictionary
281
     1
  3
Standard
350
18
  0
DICTIONARY
  5
19
102
{ACAD_REACTORS
330
C
102
}
330
C
100
AcDbDictionary
281
     1
  0
ACDBDICTIONARYWDFLT
  5
E
102
{ACAD_REACTORS
330
C
102
}
330
C
100
AcDbDictionary
281
     1
  3
Normal
350
F
100
AcDbDictionaryWithDefault
340
F
  0
DICTIONARY
  5
47
102
{ACAD_REACTORS
330
C
102
}
330
C
100
AcDbDictionary
281
     1
  3
A0
350
48
  3
A1
350
49
  3
A2
350
4A
  3
A3
350
4B
  3
A4
350
4C
  3
A5
350
4D
  3
A6
350
4E
  3
A7
350
4F
  3
A8
350
50
  3
A9
350
51
  3
B0
350
52
  3
B1
350
53
  3
B2
350
54
  3
B3
350
55
  3
B4
350
56
  3
B5
350
57
  3
B6
350
58
  3
B7
350
59
  3
B8
350
5A
  3
B9
350
5B
  3
C0
350
5C
  3
C1
350
5D
  3
C2
350
5E
  3
C3
350
5F
  3
C4
350
60
  3
C5
350
61
  3
C6
350
62
  3
C7
350
63
  3
C8
350
64
  3
C9
350
65
  3
D0
350
66
  3
D1
350
67
  3
D2
350
68
  0
XRECORD
  5
18C
102
{ACAD_REACTORS
330
C
102
}
330
C
100
AcDbXrecord
280
     1
  1
DWGPROPS COOKIE
  2

  3

  4

  6

  7

  8
schristopher
  9

300
=
301
=
302
=
303
=
304
=
305
=
306
=
307
=
308
=
309
=
 40
0.0
 41
2459474.758964155
 42
2459474.758990185
  1

 90
        0
  0
LAYOUT
  5
1E
102
{ACAD_REACTORS
330
1A
102
}
330
1A
100
AcDbPlotSettings
  1

  2
none_device
  4

  6

 40
0.0
 41
0.0
 42
0.0
 43
0.0
 44
0.0
 45
0.0
 46
0.0
 47
0.0
 48
0.0
 49
0.0
140
0.0
141
0.0
142
1.0
143
1.0
 70
   688
 72
     0
 73
     0
 74
     5
  7

 75
    16
147
1.0
148
0.0
149
0.0
100
AcDbLayout
  1
Layout1
 70
     1
 71
     1
 10
0.0
 20
0.0
 11
12.0
 21
9.0
 12
0.0
 22
0.0
 32
0.0
 14
1.0000000000E+20
 24
1.0000000000E+20
 34
1.0000000000E+20
 15
-1.0000000000E+20
 25
-1.0000000000E+20
 35
-1.0000000000E+20
146
0.0
 13
0.0
 23
0.0
 33
0.0
 16
1.0
 26
0.0
 36
0.0
 17
0.0
 27
1.0
 37
0.0
 76
     0
330
1B
  0
LAYOUT
  5
26
102
{ACAD_REACTORS
330
1A
102
}
330
1A
100
AcDbPlotSettings
  1

  2
none_device
  4

  6

 40
0.0
 41
0.0
 42
0.0
 43
0.0
 44
0.0
 45
0.0
 46
0.0
 47
0.0
 48
0.0
 49
0.0
140
0.0
141
0.0
142
1.0
143
1.0
 70
   688
 72
     0
 73
     0
 74
     5
  7

 75
    16
147
1.0
148
0.0
149
0.0
100
AcDbLayout
  1
Layout2
 70
     1
 71
     2
 10
0.0
 20
0.0
 11
0.0
 21
0.0
 12
0.0
 22
0.0
 32
0.0
 14
0.0
 24
0.0
 34
0.0
 15
0.0
 25
0.0
 35
0.0
146
0.0
 13
0.0
 23
0.0
 33
0.0
 16
1.0
 26
0.0
 36
0.0
 17
0.0
 27
1.0
 37
0.0
 76
     0
330
23
  0
LAYOUT
  5
22
102
{ACAD_REACTORS
330
1A
102
}
330
1A
100
AcDbPlotSettings
  1

  2
none_device
  4
ANSI_A_(11.00_x_8.50_Inches)
  6

 40
6.35
 41
19.05
 42
6.35000508
 43
19.05000254
 44
279.4
 45
215.9
 46
1.2508652682
 47
101.5744930089
 48
0.0
 49
0.0
140
0.0
141
0.0
142
3.8595006562
143
1.0
 70
  1696
 72
     0
 73
     0
 74
     0
  7

 75
     0
147
0.5913241897
148
-39.4088153714
149
0.0
100
AcDbLayout
  1
Model
 70
     1
 71
     0
 10
0.0
 20
0.0
 11
12.0
 21
9.0
 12
0.0
 22
0.0
 32
0.0
 14
-0.0632845505
 24
-0.4130928378
 34
0.0
 15
2.7583239865
 25
0.1545123207
 35
0.0
146
0.0
 13
0.0
 23
0.0
 33
0.0
 16
1.0
 26
0.0
 36
0.0
 17
0.0
 27
1.0
 37
0.0
 76
     0
330
1F
331
29
  0
MLINESTYLE
  5
18
102
{ACAD_REACTORS
330
17
102
}
330
17
100
AcDbMlineStyle
  2
Standard
 70
     0
  3

 62
   256
 51
90.0
 52
90.0
 71
     2
 49
0.5
 62
   256
  6
BYLAYER
 49
-0.5
 62
   256
  6
BYLAYER
  0
ACDBPLACEHOLDER
  5
F
102
{ACAD_REACTORS
330
E
102
}
330
E
  0
SCALE
  5
48
102
{ACAD_REACTORS
330
47
102
}
330
47
100
AcDbScale
 70
     0
300
1:1
140
1.0
141
1.0
290
     1
  0
SCALE
  5
49
102
{ACAD_REACTORS
330
47
102
}
330
47
100
AcDbScale
 70
     0
300
1:2
140
1.0
141
2.0
290
     0
  0
SCALE
  5
4A
102
{ACAD_REACTORS
330
47
102
}
330
47
100
AcDbScale
 70
     0
300
1:4
140
1.0
141
4.0
290
     0
  0
SCALE
  5
4B
102
{ACAD_REACTORS
330
47
102
}
330
47
100
AcDbScale
 70
     0
300
1:5
140
1.0
141
5.0
290
     0
  0
SCALE
  5
4C
102
{ACAD_REACTORS
330
47
102
}
330
47
100
AcDbScale
 70
     0
300
1:8
140
1.0
141
8.0
290
     0
  0
SCALE
  5
4D
102
{ACAD_REACTORS
330
47
102
}
330
47
100
AcDbScale
 70
     0
300
1:10
140
1.0
141
10.0
290
     0
  0
SCALE
  5
4E
102
{ACAD_REACTORS
330
47
102
}
330
47
100
AcDbScale
 70
     0
300
1:16
140
1.0
141
16.0
290
     0
  0
SCALE
  5
4F
102
{ACAD_REACTORS
330
47
102
}
330
47
100
AcDbScale
 70
     0
300
1:20
140
1.0
141
20.0
290
     0
  0
SCALE
  5
50
102
{ACAD_REACTORS
330
47
102
}
330
47
100
AcDbScale
 70
     0
300
1:30
140
1.0
141
30.0
290
     0
  0
SCALE
  5
51
102
{ACAD_REACTORS
330
47
102
}
330
47
100
AcDbScale
 70
     0
300
1:40
140
1.0
141
40.0
290
     0
  0
SCALE
  5
52
102
{ACAD_REACTORS
330
47
102
}
330
47
100
AcDbScale
 70
     0
300
1:50
140
1.0
141
50.0
290
     0
  0
SCALE
  5
53
102
{ACAD_REACTORS
330
47
102
}
330
47
100
AcDbScale
 70
     0
300
1:100
140
1.0
141
100.0
290
     0
  0
SCALE
  5
54
102
{ACAD_REACTORS
330
47
102
}
330
47
100
AcDbScale
 70
     0
300
2:1
140
2.0
141
1.0
290
     0
  0
SCALE
  5
55
102
{ACAD_REACTORS
330
47
102
}
330
47
100
AcDbScale
 70
     0
300
4:1
140
4.0
141
1.0
290
     0
  0
SCALE
  5
56
102
{ACAD_REACTORS
330
47
102
}
330
47
100
AcDbScale
 70
     0
300
8:1
140
8.0
141
1.0
290
     0
  0
SCALE
  5
57
102
{ACAD_REACTORS
330
47
102
}
330
47
100
AcDbScale
 70
     0
300
10:1
140
10.0
141
1.0
290
     0
  0
SCALE
  5
58
102
{ACAD_REACTORS
330
47
102
}
330
47
100
AcDbScale
 70
     0
300
100:1
140
100.0
141
1.0
290
     0
  0
SCALE
  5
59
102
{ACAD_REACTORS
330
47
102
}
330
47
100
AcDbScale
 70
     0
300
1/128" = 1'-0"
140
0.0078125
141
12.0
290
     0
  0
SCALE
  5
5A
102
{ACAD_REACTORS
330
47
102
}
330
47
100
AcDbScale
 70
     0
300
1/64" = 1'-0"
140
0.015625
141
12.0
290
     0
  0
SCALE
  5
5B
102
{ACAD_REACTORS
330
47
102
}
330
47
100
AcDbScale
 70
     0
300
1/32" = 1'-0"
140
0.03125
141
12.0
290
     0
  0
SCALE
  5
5C
102
{ACAD_REACTORS
330
47
102
}
330
47
100
AcDbScale
 70
     0
300
1/16" = 1'-0"
140
0.0625
141
12.0
290
     0
  0
SCALE
  5
5D
102
{ACAD_REACTORS
330
47
102
}
330
47
100
AcDbScale
 70
     0
300
3/32" = 1'-0"
140
0.09375
141
12.0
290
     0
  0
SCALE
  5
5E
102
{ACAD_REACTORS
330
47
102
}
330
47
100
AcDbScale
 70
     0
300
1/8" = 1'-0"
140
0.125
141
12.0
290
     0
  0
SCALE
  5
5F
102
{ACAD_REACTORS
330
47
102
}
330
47
100
AcDbScale
 70
     0
300
3/16" = 1'-0"
140
0.1875
141
12.0
290
     0
  0
SCALE
  5
60
102
{ACAD_REACTORS
330
47
102
}
330
47
100
AcDbScale
 70
     0
300
1/4" = 1'-0"
140
0.25
141
12.0
290
     0
  0
SCALE
  5
61
102
{ACAD_REACTORS
330
47
102
}
330
47
100
AcDbScale
 70
     0
300
3/8" = 1'-0"
140
0.375
141
12.0
290
     0
  0
SCALE
  5
62
102
{ACAD_REACTORS
330
47
102
}
330
47
100
AcDbScale
 70
     0
300
1/2" = 1'-0"
140
0.5
141
12.0
290
     0
  0
SCALE
  5
63
102
{ACAD_REACTORS
330
47
102
}
330
47
100
AcDbScale
 70
     0
300
3/4" = 1'-0"
140
0.75
141
12.0
290
     0
  0
SCALE
  5
64
102
{ACAD_REACTORS
330
47
102
}
330
47
100
AcDbScale
 70
     0
300
1" = 1'-0"
140
1.0
141
12.0
290
     0
  0
SCALE
  5
65
102
{ACAD_REACTORS
330
47
102
}
330
47
100
AcDbScale
 70
     0
300
1-1/2" = 1'-0"
140
1.5
141
12.0
290
     0
  0
SCALE
  5
66
102
{ACAD_REACTORS
330
47
102
}
330
47
100
AcDbScale
 70
     0
300
3" = 1'-0"
140
3.0
141
12.0
290
     0
  0
SCALE
  5
67
102
{ACAD_REACTORS
330
47
102
}
330
47
100
AcDbScale
 70
     0
300
6" = 1'-0"
140
6.0
141
12.0
290
     0
  0
SCALE
  5
68
102
{ACAD_REACTORS
330
47
102
}
330
47
100
AcDbScale
 70
     0
300
1'-0" = 1'-0"
140
12.0
141
12.0
290
     0
  0
ENDSEC
  0
EOF
