  0
SECTION
  2
HEADER
  9
$ACADVER
  1
AC1015
  9
$ACADMAINTVER
 70
     6
  9
$DWGCODEPAGE
  3
ANSI_1252
  9
$INSBASE
 10
0.0
 20
0.0
 30
0.0
  9
$EXTMIN
 10
0.0
 20
-0.24985
 30
0.0
  9
$EXTMAX
 10
3.4
 20
0.24985
 30
0.0
  9
$LIMMIN
 10
0.0
 20
0.0
  9
$LIMMAX
 10
12.0
 20
9.0
  9
$ORTHOMODE
 70
     0
  9
$REGENMODE
 70
     1
  9
$FILLMODE
 70
     1
  9
$QTEXTMODE
 70
     0
  9
$MIRRTEXT
 70
     1
  9
$LTSCALE
 40
1.0
  9
$ATTMODE
 70
     1
  9
$TEXTSIZE
 40
0.1377952756
  9
$TRACEWID
 40
0.05
  9
$TEXTSTYLE
  7
Standard
  9
$CLAYER
  8
0
  9
$CELTYPE
  6
ByLayer
  9
$CECOLOR
 62
   256
  9
$CELTSCALE
 40
1.0
  9
$DISPSILH
 70
     0
  9
$DIMSCALE
 40
1.0
  9
$DIMASZ
 40
0.156
  9
$DIMEXO
 40
0.0
  9
$DIMDLI
 40
0.38
  9
$DIMRND
 40
0.0
  9
$DIMDLE
 40
0.0
  9
$DIMEXE
 40
0.125
  9
$DIMTP
 40
0.0
  9
$DIMTM
 40
0.0
  9
$DIMTXT
 40
0.1377952756
  9
$DIMCEN
 40
0.09
  9
$DIMTSZ
 40
0.0
  9
$DIMTOL
 70
     0
  9
$DIMLIM
 70
     0
  9
$DIMTIH
 70
     1
  9
$DIMTOH
 70
     1
  9
$DIMSE1
 70
     0
  9
$DIMSE2
 70
     0
  9
$DIMTAD
 70
     0
  9
$DIMZIN
 70
     0
  9
$DIMBLK
  1

  9
$DIMASO
 70
     1
  9
$DIMSHO
 70
     1
  9
$DIMPOST
  1

  9
$DIMAPOST
  1

  9
$DIMALT
 70
     0
  9
$DIMALTD
 70
     2
  9
$DIMALTF
 40
25.4
  9
$DIMLFAC
 40
1.0
  9
$DIMTOFL
 70
     0
  9
$DIMTVP
 40
0.0
  9
$DIMTIX
 70
     0
  9
$DIMSOXD
 70
     0
  9
$DIMSAH
 70
     0
  9
$DIMBLK1
  1

  9
$DIMBLK2
  1

  9
$DIMSTYLE
  2
Standard
  9
$DIMCLRD
 70
     0
  9
$DIMCLRE
 70
     0
  9
$DIMCLRT
 70
     0
  9
$DIMTFAC
 40
1.0
  9
$DIMGAP
 40
0.06
  9
$DIMJUST
 70
     0
  9
$DIMSD1
 70
     0
  9
$DIMSD2
 70
     0
  9
$DIMTOLJ
 70
     1
  9
$DIMTZIN
 70
     0
  9
$DIMALTZ
 70
     0
  9
$DIMALTTZ
 70
     0
  9
$DIMUPT
 70
     0
  9
$DIMDEC
 70
     3
  9
$DIMTDEC
 70
     3
  9
$DIMALTU
 70
     2
  9
$DIMALTTD
 70
     2
  9
$DIMTXSTY
  7
Standard
  9
$DIMAUNIT
 70
     0
  9
$DIMADEC
 70
     2
  9
$DIMALTRND
 40
0.0
  9
$DIMAZIN
 70
     0
  9
$DIMDSEP
 70
    46
  9
$DIMATFIT
 70
     3
  9
$DIMFRAC
 70
     0
  9
$DIMLDRBLK
  1

  9
$DIMLUNIT
 70
     2
  9
$DIMLWD
 70
    -2
  9
$DIMLWE
 70
    -2
  9
$DIMTMOVE
 70
     0
  9
$LUNITS
 70
     2
  9
$LUPREC
 70
     3
  9
$SKETCHINC
 40
0.1
  9
$FILLETRAD
 40
0.0
  9
$AUNITS
 70
     0
  9
$AUPREC
 70
     2
  9
$MENU
  1
.
  9
$ELEVATION
 40
0.0
  9
$PELEVATION
 40
0.0
  9
$THICKNESS
 40
0.0
  9
$LIMCHECK
 70
     0
  9
$CHAMFERA
 40
0.0
  9
$CHAMFERB
 40
0.0
  9
$CHAMFERC
 40
0.0
  9
$CHAMFERD
 40
0.0
  9
$SKPOLY
 70
     0
  9
$TDCREATE
 40
2460293.687692176
  9
$TDUCREATE
 40
2460294.021025509
  9
$TDUPDATE
 40
2460293.687722303
  9
$TDUUPDATE
 40
2460294.021055636
  9
$TDINDWG
 40
0.0000000116
  9
$TDUSRTIMER
 40
0.0000000116
  9
$USRTIMER
 70
     1
  9
$ANGBASE
 50
0.0
  9
$ANGDIR
 70
     0
  9
$PDMODE
 70
     0
  9
$PDSIZE
 40
-1.0
  9
$PLINEWID
 40
0.0
  9
$SPLFRAME
 70
     0
  9
$SPLINETYPE
 70
     6
  9
$SPLINESEGS
 70
     8
  9
$HANDSEED
  5
4A1
  9
$SURFTAB1
 70
     6
  9
$SURFTAB2
 70
     6
  9
$SURFTYPE
 70
     6
  9
$SURFU
 70
     6
  9
$SURFV
 70
     6
  9
$UCSBASE
  2

  9
$UCSNAME
  2

  9
$UCSORG
 10
0.0
 20
0.0
 30
0.0
  9
$UCSXDIR
 10
1.0
 20
0.0
 30
0.0
  9
$UCSYDIR
 10
0.0
 20
1.0
 30
0.0
  9
$UCSORTHOREF
  2

  9
$UCSORTHOVIEW
 70
     0
  9
$UCSORGTOP
 10
0.0
 20
0.0
 30
0.0
  9
$UCSORGBOTTOM
 10
0.0
 20
0.0
 30
0.0
  9
$UCSORGLEFT
 10
0.0
 20
0.0
 30
0.0
  9
$UCSORGRIGHT
 10
0.0
 20
0.0
 30
0.0
  9
$UCSORGFRONT
 10
0.0
 20
0.0
 30
0.0
  9
$UCSORGBACK
 10
0.0
 20
0.0
 30
0.0
  9
$PUCSBASE
  2

  9
$PUCSNAME
  2

  9
$PUCSORG
 10
0.0
 20
0.0
 30
0.0
  9
$PUCSXDIR
 10
1.0
 20
0.0
 30
0.0
  9
$PUCSYDIR
 10
0.0
 20
1.0
 30
0.0
  9
$PUCSORTHOREF
  2

  9
$PUCSORTHOVIEW
 70
     0
  9
$PUCSORGTOP
 10
0.0
 20
0.0
 30
0.0
  9
$PUCSORGBOTTOM
 10
0.0
 20
0.0
 30
0.0
  9
$PUCSORGLEFT
 10
0.0
 20
0.0
 30
0.0
  9
$PUCSORGRIGHT
 10
0.0
 20
0.0
 30
0.0
  9
$PUCSORGFRONT
 10
0.0
 20
0.0
 30
0.0
  9
$PUCSORGBACK
 10
0.0
 20
0.0
 30
0.0
  9
$USERI1
 70
     0
  9
$USERI2
 70
     0
  9
$USERI3
 70
     0
  9
$USERI4
 70
     0
  9
$USERI5
 70
     0
  9
$USERR1
 40
0.0
  9
$USERR2
 40
0.0
  9
$USERR3
 40
0.0
  9
$USERR4
 40
0.0
  9
$USERR5
 40
0.0
  9
$WORLDVIEW
 70
     1
  9
$SHADEDGE
 70
     3
  9
$SHADEDIF
 70
    70
  9
$TILEMODE
 70
     1
  9
$MAXACTVP
 70
    64
  9
$PINSBASE
 10
0.0
 20
0.0
 30
0.0
  9
$PLIMCHECK
 70
     0
  9
$PEXTMIN
 10
1.0000000000E+20
 20
1.0000000000E+20
 30
1.0000000000E+20
  9
$PEXTMAX
 10
-1.0000000000E+20
 20
-1.0000000000E+20
 30
-1.0000000000E+20
  9
$PLIMMIN
 10
0.0
 20
0.0
  9
$PLIMMAX
 10
12.0
 20
9.0
  9
$UNITMODE
 70
     0
  9
$VISRETAIN
 70
     1
  9
$PLINEGEN
 70
     0
  9
$PSLTSCALE
 70
     1
  9
$TREEDEPTH
 70
  3020
  9
$CMLSTYLE
  2
Standard
  9
$CMLJUST
 70
     0
  9
$CMLSCALE
 40
1.0
  9
$PROXYGRAPHICS
 70
     1
  9
$MEASUREMENT
 70
     0
  9
$CELWEIGHT
370
    -1
  9
$ENDCAPS
280
     0
  9
$JOINSTYLE
280
     0
  9
$LWDISPLAY
290
     1
  9
$INSUNITS
 70
     1
  9
$HYPERLINKBASE
  1

  9
$STYLESHEET
  1

  9
$XEDIT
290
     1
  9
$CEPSNTYPE
380
     0
  9
$PSTYLEMODE
290
     1
  9
$FINGERPRINTGUID
  2
{b4b5ca03-5417-4b9c-bd0b-317bac752f4f}
  9
$VERSIONGUID
  2
{FAEB1C32-E019-11D5-929B-00C0DF256EC4}
  9
$EXTNAMES
290
     1
  9
$PSVPSCALE
 40
0.0
  9
$OLESTARTUP
290
     0
  0
ENDSEC
  0
SECTION
  2
CLASSES
  0
CLASS
  1
ACDBDICTIONARYWDFLT
  2
AcDbDictionaryWithDefault
  3
ObjectDBX Classes
 90
        0
280
     0
281
     0
  0
CLASS
  1
VISUALSTYLE
  2
AcDbVisualStyle
  3
ObjectDBX Classes
 90
     4095
280
     0
281
     0
  0
CLASS
  1
MATERIAL
  2
AcDbMaterial
  3
ObjectDBX Classes
 90
     1153
280
     0
281
     0
  0
CLASS
  1
SCALE
  2
AcDbScale
  3
ObjectDBX Classes
 90
     1153
280
     0
281
     0
  0
CLASS
  1
TABLESTYLE
  2
AcDbTableStyle
  3
ObjectDBX Classes
 90
     4095
280
     0
281
     0
  0
CLASS
  1
MLEADERSTYLE
  2
AcDbMLeaderStyle
  3
ACDB_MLEADERSTYLE_CLASS
 90
     4095
280
     0
281
     0
  0
CLASS
  1
SUN
  2
AcDbSun
  3
SCENEOE
 90
     1153
280
     0
281
     0
  0
CLASS
  1
ACDBPLACEHOLDER
  2
AcDbPlaceHolder
  3
ObjectDBX Classes
 90
        0
280
     0
281
     0
  0
CLASS
  1
LAYOUT
  2
AcDbLayout
  3
ObjectDBX Classes
 90
        0
280
     0
281
     0
  0
ENDSEC
  0
SECTION
  2
TABLES
  0
TABLE
  2
VPORT
  5
8
330
0
100
AcDbSymbolTable
 70
     1
  0
VPORT
  5
29
330
8
100
AcDbSymbolTableRecord
100
AcDbViewportTableRecord
  2
*Active
 70
     0
 10
0.0
 20
0.0
 11
1.0
 21
1.0
 12
1.7
 22
0.0
 13
0.0
 23
0.0
 14
0.5
 24
0.5
 15
0.5
 25
0.5
 16
0.0
 26
0.0
 36
1.0
 17
0.0
 27
0.0
 37
0.0
 40
0.509694
 41
6.8040824495
 42
50.0
 43
0.0
 44
0.0
 50
0.0
 51
0.0
 71
     0
 72
   100
 73
     1
 74
     3
 75
     0
 76
     0
 77
     0
 78
     0
281
     0
 65
     1
110
0.0
120
0.0
130
0.0
111
1.0
121
0.0
131
0.0
112
0.0
122
1.0
132
0.0
 79
     0
146
0.0
  0
ENDTAB
  0
TABLE
  2
LTYPE
  5
5
330
0
100
AcDbSymbolTable
 70
     6
  0
LTYPE
  5
14
330
5
100
AcDbSymbolTableRecord
100
AcDbLinetypeTableRecord
  2
ByBlock
 70
     0
  3

 72
    65
 73
     0
 40
0.0
  0
LTYPE
  5
15
330
5
100
AcDbSymbolTableRecord
100
AcDbLinetypeTableRecord
  2
ByLayer
 70
     0
  3

 72
    65
 73
     0
 40
0.0
  0
LTYPE
  5
16
330
5
100
AcDbSymbolTableRecord
100
AcDbLinetypeTableRecord
  2
Continuous
 70
     0
  3
Solid line
 72
    65
 73
     0
 40
0.0
  0
LTYPE
  5
5E
330
5
100
AcDbSymbolTableRecord
100
AcDbLinetypeTableRecord
  2
HIDDEN
 70
     0
  3
Hidden __ __ __ __ __ __ __ __ __ __ __ __ __ __
 72
    65
 73
     2
 40
0.075
 49
0.05
 74
     0
 49
-0.025
 74
     0
  0
LTYPE
  5
5F
330
5
100
AcDbSymbolTableRecord
100
AcDbLinetypeTableRecord
  2
PHANTOM
 70
     0
  3
Phantom ______  __  __  ______  __  __  ______
 72
    65
 73
     6
 40
0.5
 49
0.25
 74
     0
 49
-0.05
 74
     0
 49
0.05
 74
     0
 49
-0.05
 74
     0
 49
0.05
 74
     0
 49
-0.05
 74
     0
  0
LTYPE
  5
60
330
5
100
AcDbSymbolTableRecord
100
AcDbLinetypeTableRecord
  2
CENTER
 70
     0
  3
Center ____ _ ____ _ ____ _ ____ _ ____ _ ____
 72
    65
 73
     4
 40
0.4
 49
0.25
 74
     0
 49
-0.05
 74
     0
 49
0.05
 74
     0
 49
-0.05
 74
     0
  0
LTYPE
  5
61
330
5
100
AcDbSymbolTableRecord
100
AcDbLinetypeTableRecord
  2
CENTERX2
 70
     0
  3
Center (2x) ________  __  ________  __  _____
 72
    65
 73
     4
 40
0.8
 49
0.5
 74
     0
 49
-0.1
 74
     0
 49
0.1
 74
     0
 49
-0.1
 74
     0
  0
LTYPE
  5
62
330
5
100
AcDbSymbolTableRecord
100
AcDbLinetypeTableRecord
  2
DOT2
 70
     0
  3
Dot (.5x) ........................................
 72
    65
 73
     2
 40
0.025
 49
0.0
 74
     0
 49
-0.025
 74
     0
  0
ENDTAB
  0
TABLE
  2
LAYER
  5
2
330
0
100
AcDbSymbolTable
 70
     1
  0
LAYER
  5
10
330
2
100
AcDbSymbolTableRecord
100
AcDbLayerTableRecord
  2
0
 70
     0
 62
     7
  6
Continuous
370
    -3
390
F
  0
ENDTAB
  0
TABLE
  2
STYLE
  5
3
330
0
100
AcDbSymbolTable
 70
     1
  0
STYLE
  5
11
330
3
100
AcDbSymbolTableRecord
100
AcDbTextStyleTableRecord
  2
Standard
 70
     0
 40
0.0
 41
1.0
 50
0.0
 71
     0
 42
0.1377952756
  3
txt
  4

  0
ENDTAB
  0
TABLE
  2
VIEW
  5
6
330
0
100
AcDbSymbolTable
 70
     0
  0
ENDTAB
  0
TABLE
  2
UCS
  5
7
330
0
100
AcDbSymbolTable
 70
     0
  0
ENDTAB
  0
TABLE
  2
APPID
  5
9
330
0
100
AcDbSymbolTable
 70
     1
  0
APPID
  5
12
330
9
100
AcDbSymbolTableRecord
100
AcDbRegAppTableRecord
  2
ACAD
 70
     0
  0
ENDTAB
  0
TABLE
  2
DIMSTYLE
  5
A
330
0
100
AcDbSymbolTable
 70
     1
100
AcDbDimStyleTable
  0
DIMSTYLE
105
27
330
A
100
AcDbSymbolTableRecord
100
AcDbDimStyleTableRecord
  2
Standard
 70
     0
178
     0
340
11
  0
ENDTAB
  0
TABLE
  2
BLOCK_RECORD
  5
1
330
0
100
AcDbSymbolTable
 70
     1
  0
BLOCK_RECORD
  5
1F
330
1
100
AcDbSymbolTableRecord
100
AcDbBlockTableRecord
  2
*Model_Space
340
22
  0
BLOCK_RECORD
  5
1B
330
1
100
AcDbSymbolTableRecord
100
AcDbBlockTableRecord
  2
*Paper_Space
340
1E
  0
BLOCK_RECORD
  5
23
330
1
100
AcDbSymbolTableRecord
100
AcDbBlockTableRecord
  2
*Paper_Space0
340
26
  0
ENDTAB
  0
ENDSEC
  0
SECTION
  2
BLOCKS
  0
BLOCK
  5
20
330
1F
100
AcDbEntity
  8
0
100
AcDbBlockBegin
  2
*Model_Space
 70
     0
 10
0.0
 20
0.0
 30
0.0
  3
*Model_Space
  1

  0
ENDBLK
  5
21
330
1F
100
AcDbEntity
  8
0
100
AcDbBlockEnd
  0
BLOCK
  5
1C
330
1B
100
AcDbEntity
 67
     1
  8
0
100
AcDbBlockBegin
  2
*Paper_Space
 70
     0
 10
0.0
 20
0.0
 30
0.0
  3
*Paper_Space
  1

  0
ENDBLK
  5
1D
330
1B
100
AcDbEntity
 67
     1
  8
0
100
AcDbBlockEnd
  0
BLOCK
  5
24
330
23
100
AcDbEntity
  8
0
100
AcDbBlockBegin
  2
*Paper_Space0
 70
     0
 10
0.0
 20
0.0
 30
0.0
  3
*Paper_Space0
  1

  0
ENDBLK
  5
25
330
23
100
AcDbEntity
  8
0
100
AcDbBlockEnd
  0
ENDSEC
  0
SECTION
  2
ENTITIES
  0
SPLINE
  5
68
330
1F
100
AcDbEntity
  8
0
  6
Continuous
 62
     7
370
    25
100
AcDbSpline
210
0.0
220
0.0
230
1.0
 70
     8
 71
     3
 72
    15
 73
    11
 74
     0
 42
0.00000001
 43
0.00000001
 40
0.0
 40
0.0
 40
0.0
 40
0.0
 40
0.1252846424401867
 40
0.2501040940426943
 40
0.374646796323502
 40
0.4999556053366283
 40
0.6253208526607814
 40
0.7499134297722474
 40
0.8746786782343939
 40
0.9999999999999999
 40
0.9999999999999999
 40
0.9999999999999999
 40
0.9999999999999999
 10
2.76855236059795
 20
0.2390925059482556
 30
0.0
 10
2.767735843950741
 20
0.2402913914180394
 30
0.0
 10
2.766105842441032
 20
0.2426847108101141
 30
0.0
 10
2.762600949755694
 20
0.2453252254027974
 30
0.0
 10
2.758585576485521
 20
0.2470073632619843
 30
0.0
 10
2.754250883654517
 20
0.2475862252243872
 30
0.0
 10
2.749915582113649
 20
0.2470074246666988
 30
0.0
 10
2.745899532113629
 20
0.2453254303768769
 30
0.0
 10
2.74239387548609
 20
0.2426852585492415
 30
0.0
 10
2.74076425925992
 20
0.2402918640713405
 30
0.0
 10
2.739947639402051
 20
0.2390925059482558
 30
0.0
  0
SPLINE
  5
69
330
1F
100
AcDbEntity
  8
0
  6
Continuous
 62
     7
370
    25
100
AcDbSpline
210
0.0
220
0.0
230
1.0
 70
     8
 71
     3
 72
    15
 73
    11
 74
     0
 42
0.00000001
 43
0.00000001
 40
0.0
 40
0.0
 40
0.0
 40
0.0
 40
0.1252846424401853
 40
0.2501040940426665
 40
0.3746467963234872
 40
0.4999556053366279
 40
0.6253208526607953
 40
0.7499134297722599
 40
0.874678678234405
 40
1.0
 40
1.0
 40
1.0
 40
1.0
 10
2.56855236059795
 20
0.2390925059482556
 30
0.0
 10
2.567735843950741
 20
0.2402913914180394
 30
0.0
 10
2.566105842441031
 20
0.2426847108101137
 30
0.0
 10
2.562600949755696
 20
0.245325225402798
 30
0.0
 10
2.558585576485519
 20
0.2470073632619841
 30
0.0
 10
2.554250883654518
 20
0.2475862252243874
 30
0.0
 10
2.549915582113647
 20
0.2470074246666988
 30
0.0
 10
2.54589953211363
 20
0.2453254303768771
 30
0.0
 10
2.542393875486089
 20
0.2426852585492415
 30
0.0
 10
2.540764259259919
 20
0.2402918640713405
 30
0.0
 10
2.539947639402051
 20
0.2390925059482558
 30
0.0
  0
SPLINE
  5
6A
330
1F
100
AcDbEntity
  8
0
  6
Continuous
 62
     7
370
    25
100
AcDbSpline
210
0.0
220
0.0
230
1.0
 70
     8
 71
     3
 72
    15
 73
    11
 74
     0
 42
0.00000001
 43
0.00000001
 40
0.0
 40
0.0
 40
0.0
 40
0.0
 40
0.1252846424401866
 40
0.250104094042692
 40
0.3746467963234986
 40
0.4999556053366241
 40
0.6253208526607764
 40
0.7499134297722273
 40
0.8746786782343853
 40
1.0
 40
1.0
 40
1.0
 40
1.0
 10
3.168552360597951
 20
0.2390925059482556
 30
0.0
 10
3.167735843950742
 20
0.2402913914180395
 30
0.0
 10
3.166105842441032
 20
0.2426847108101142
 30
0.0
 10
3.162600949755693
 20
0.2453252254027974
 30
0.0
 10
3.15858557648552
 20
0.2470073632619842
 30
0.0
 10
3.154250883654518
 20
0.2475862252243873
 30
0.0
 10
3.149915582113648
 20
0.2470074246666989
 30
0.0
 10
3.145899532113631
 20
0.2453254303768767
 30
0.0
 10
3.142393875486088
 20
0.2426852585492414
 30
0.0
 10
3.140764259259918
 20
0.2402918640713405
 30
0.0
 10
3.13994763940205
 20
0.2390925059482558
 30
0.0
  0
SPLINE
  5
6B
330
1F
100
AcDbEntity
  8
0
  6
Continuous
 62
     7
370
    25
100
AcDbSpline
210
0.0
220
0.0
230
1.0
 70
     8
 71
     3
 72
    15
 73
    11
 74
     0
 42
0.00000001
 43
0.00000001
 40
0.0
 40
0.0
 40
0.0
 40
0.0
 40
0.1252846424401895
 40
0.2501040940426987
 40
0.3746467963234925
 40
0.4999556053366215
 40
0.6253208526607932
 40
0.7499134297722474
 40
0.8746786782343823
 40
0.9999999999999999
 40
0.9999999999999999
 40
0.9999999999999999
 40
0.9999999999999999
 10
3.06855236059795
 20
0.2390925059482558
 30
0.0
 10
3.067735843950741
 20
0.2402913914180397
 30
0.0
 10
3.066105842441031
 20
0.2426847108101144
 30
0.0
 10
3.062600949755693
 20
0.2453252254027975
 30
0.0
 10
3.05858557648552
 20
0.2470073632619844
 30
0.0
 10
3.054250883654517
 20
0.2475862252243871
 30
0.0
 10
3.049915582113648
 20
0.2470074246666989
 30
0.0
 10
3.045899532113629
 20
0.2453254303768768
 30
0.0
 10
3.04239387548609
 20
0.2426852585492412
 30
0.0
 10
3.04076425925992
 20
0.2402918640713406
 30
0.0
 10
3.039947639402051
 20
0.2390925059482559
 30
0.0
  0
SPLINE
  5
6C
330
1F
100
AcDbEntity
  8
0
  6
Continuous
 62
     7
370
    25
100
AcDbSpline
210
0.0
220
0.0
230
1.0
 70
     8
 71
     3
 72
    15
 73
    11
 74
     0
 42
0.00000001
 43
0.00000001
 40
0.0
 40
0.0
 40
0.0
 40
0.0
 40
0.1252846424401897
 40
0.2501040940426859
 40
0.3746467963235083
 40
0.4999556053366367
 40
0.6253208526607921
 40
0.7499134297722452
 40
0.8746786782343933
 40
1.0
 40
1.0
 40
1.0
 40
1.0
 10
2.66855236059795
 20
0.2390925059482558
 30
0.0
 10
2.667735843950741
 20
0.2402913914180397
 30
0.0
 10
2.66610584244103
 20
0.2426847108101141
 30
0.0
 10
2.662600949755694
 20
0.245325225402798
 30
0.0
 10
2.658585576485519
 20
0.2470073632619841
 30
0.0
 10
2.654250883654519
 20
0.2475862252243874
 30
0.0
 10
2.649915582113647
 20
0.2470074246666988
 30
0.0
 10
2.645899532113631
 20
0.245325430376877
 30
0.0
 10
2.642393875486089
 20
0.2426852585492414
 30
0.0
 10
2.64076425925992
 20
0.2402918640713405
 30
0.0
 10
2.639947639402051
 20
0.2390925059482558
 30
0.0
  0
SPLINE
  5
6D
330
1F
100
AcDbEntity
  8
0
  6
Continuous
 62
     7
370
    25
100
AcDbSpline
210
0.0
220
0.0
230
1.0
 70
     8
 71
     3
 72
    15
 73
    11
 74
     0
 42
0.00000001
 43
0.00000001
 40
0.0
 40
0.0
 40
0.0
 40
0.0
 40
0.1252846424401786
 40
0.2501040940426997
 40
0.374646796323508
 40
0.4999556053366049
 40
0.6253208526607917
 40
0.7499134297722451
 40
0.8746786782343932
 40
0.9999999999999999
 40
0.9999999999999999
 40
0.9999999999999999
 40
0.9999999999999999
 10
2.86855236059795
 20
0.2390925059482558
 30
0.0
 10
2.867735843950741
 20
0.2402913914180398
 30
0.0
 10
2.866105842441031
 20
0.2426847108101147
 30
0.0
 10
2.862600949755695
 20
0.2453252254027975
 30
0.0
 10
2.858585576485519
 20
0.247007363261984
 30
0.0
 10
2.854250883654518
 20
0.2475862252243873
 30
0.0
 10
2.849915582113649
 20
0.247007424666699
 30
0.0
 10
2.84589953211363
 20
0.2453254303768768
 30
0.0
 10
2.842393875486089
 20
0.2426852585492414
 30
0.0
 10
2.840764259259919
 20
0.2402918640713405
 30
0.0
 10
2.839947639402051
 20
0.2390925059482558
 30
0.0
  0
SPLINE
  5
6E
330
1F
100
AcDbEntity
  8
0
  6
Continuous
 62
     7
370
    25
100
AcDbSpline
210
0.0
220
0.0
230
1.0
 70
     8
 71
     3
 72
    15
 73
    11
 74
     0
 42
0.00000001
 43
0.00000001
 40
0.0
 40
0.0
 40
0.0
 40
0.0
 40
0.1252846424401893
 40
0.250104094042685
 40
0.3746467963234925
 40
0.4999556053366203
 40
0.6253208526607911
 40
0.7499134297722364
 40
0.874678678234384
 40
0.9999999999999999
 40
0.9999999999999999
 40
0.9999999999999999
 40
0.9999999999999999
 10
2.46855236059795
 20
0.2390925059482558
 30
0.0
 10
2.467735843950741
 20
0.2402913914180397
 30
0.0
 10
2.46610584244103
 20
0.2426847108101142
 30
0.0
 10
2.462600949755694
 20
0.2453252254027978
 30
0.0
 10
2.45858557648552
 20
0.2470073632619843
 30
0.0
 10
2.454250883654518
 20
0.2475862252243873
 30
0.0
 10
2.449915582113647
 20
0.2470074246666989
 30
0.0
 10
2.445899532113631
 20
0.2453254303768768
 30
0.0
 10
2.442393875486089
 20
0.2426852585492413
 30
0.0
 10
2.440764259259919
 20
0.2402918640713405
 30
0.0
 10
2.439947639402051
 20
0.2390925059482558
 30
0.0
  0
SPLINE
  5
6F
330
1F
100
AcDbEntity
  8
0
  6
Continuous
 62
     7
370
    25
100
AcDbSpline
210
0.0
220
0.0
230
1.0
 70
     8
 71
     3
 72
    15
 73
    11
 74
     0
 42
0.00000001
 43
0.00000001
 40
0.0
 40
0.0
 40
0.0
 40
0.0
 40
0.1252846424401863
 40
0.250104094042679
 40
0.3746467963235
 40
0.4999556053366253
 40
0.6253208526607772
 40
0.7499134297722277
 40
0.8746786782343855
 40
1.0
 40
1.0
 40
1.0
 40
1.0
 10
3.36855236059795
 20
0.2390925059482556
 30
0.0
 10
3.367735843950742
 20
0.2402913914180395
 30
0.0
 10
3.366105842441032
 20
0.242684710810114
 30
0.0
 10
3.362600949755695
 20
0.2453252254027978
 30
0.0
 10
3.35858557648552
 20
0.2470073632619841
 30
0.0
 10
3.354250883654519
 20
0.2475862252243874
 30
0.0
 10
3.349915582113648
 20
0.2470074246666989
 30
0.0
 10
3.345899532113631
 20
0.2453254303768767
 30
0.0
 10
3.342393875486089
 20
0.2426852585492414
 30
0.0
 10
3.340764259259919
 20
0.2402918640713405
 30
0.0
 10
3.33994763940205
 20
0.2390925059482558
 30
0.0
  0
SPLINE
  5
70
330
1F
100
AcDbEntity
  8
0
  6
Continuous
 62
     7
370
    25
100
AcDbSpline
210
0.0
220
0.0
230
1.0
 70
     8
 71
     3
 72
    15
 73
    11
 74
     0
 42
0.00000001
 43
0.00000001
 40
0.0
 40
0.0
 40
0.0
 40
0.0
 40
0.1252846424401899
 40
0.2501040940426996
 40
0.3746467963235084
 40
0.4999556053366065
 40
0.6253208526607629
 40
0.7499134297722467
 40
0.8746786782343821
 40
1.0
 40
1.0
 40
1.0
 40
1.0
 10
3.26855236059795
 20
0.2390925059482558
 30
0.0
 10
3.267735843950741
 20
0.2402913914180397
 30
0.0
 10
3.266105842441031
 20
0.2426847108101143
 30
0.0
 10
3.262600949755693
 20
0.2453252254027976
 30
0.0
 10
3.25858557648552
 20
0.2470073632619841
 30
0.0
 10
3.254250883654517
 20
0.2475862252243874
 30
0.0
 10
3.24991558211365
 20
0.2470074246666987
 30
0.0
 10
3.245899532113629
 20
0.2453254303768773
 30
0.0
 10
3.24239387548609
 20
0.2426852585492411
 30
0.0
 10
3.24076425925992
 20
0.2402918640713406
 30
0.0
 10
3.239947639402051
 20
0.2390925059482559
 30
0.0
  0
SPLINE
  5
71
330
1F
100
AcDbEntity
  8
0
  6
Continuous
 62
     7
370
    25
100
AcDbSpline
210
0.0
220
0.0
230
1.0
 70
     8
 71
     3
 72
    15
 73
    11
 74
     0
 42
0.00000001
 43
0.00000001
 40
0.0
 40
0.0
 40
0.0
 40
0.0
 40
0.1252846424401864
 40
0.2501040940426918
 40
0.3746467963234837
 40
0.499955605336609
 40
0.6253208526607767
 40
0.7499134297722275
 40
0.8746786782343854
 40
1.0
 40
1.0
 40
1.0
 40
1.0
 10
2.96855236059795
 20
0.2390925059482556
 30
0.0
 10
2.967735843950741
 20
0.2402913914180395
 30
0.0
 10
2.966105842441031
 20
0.2426847108101142
 30
0.0
 10
2.962600949755695
 20
0.2453252254027973
 30
0.0
 10
2.958585576485519
 20
0.2470073632619842
 30
0.0
 10
2.954250883654518
 20
0.2475862252243873
 30
0.0
 10
2.949915582113648
 20
0.247007424666699
 30
0.0
 10
2.945899532113631
 20
0.2453254303768767
 30
0.0
 10
2.942393875486089
 20
0.2426852585492414
 30
0.0
 10
2.940764259259919
 20
0.2402918640713404
 30
0.0
 10
2.93994763940205
 20
0.2390925059482558
 30
0.0
  0
SPLINE
  5
72
330
1F
100
AcDbEntity
  8
0
  6
Continuous
 62
     7
370
    25
100
AcDbSpline
210
0.0
220
0.0
230
1.0
 70
     8
 71
     3
 72
    10
 73
     6
 74
     0
 42
0.00000001
 43
0.00000001
 40
0.0
 40
0.0
 40
0.0
 40
0.0
 40
0.2812794361700234
 40
0.5612798090538977
 40
0.9999999999999999
 40
0.9999999999999999
 40
0.9999999999999999
 40
0.9999999999999999
 10
2.36855236059795
 20
0.2390925059482557
 30
0.0
 10
2.36762440208742
 20
0.2404212303295906
 30
0.0
 10
2.365772704776405
 20
0.2430726369777114
 30
0.0
 10
2.360937342216476
 20
0.2464875069834254
 30
0.0
 10
2.356784792422012
 20
0.2470497080736602
 30
0.0
 10
2.35425
 20
0.2473928859122676
 30
0.0
  0
SPLINE
  5
94
330
1F
100
AcDbEntity
  8
0
  6
Continuous
 62
     7
370
    25
100
AcDbSpline
210
0.0
220
0.0
230
1.0
 70
     8
 71
     3
 72
    22
 73
    18
 74
     0
 42
0.00000001
 43
0.00000001
 40
0.0
 40
0.0
 40
0.0
 40
0.0
 40
0.125000000000001
 40
0.125000000000001
 40
0.1875000000000009
 40
0.1875000000000009
 40
0.2500000000000009
 40
0.2500000000000009
 40
0.3750000000000007
 40
0.3750000000000007
 40
0.5000000000000006
 40
0.5000000000000006
 40
0.6250000000000004
 40
0.6250000000000004
 40
0.7500000000000003
 40
0.7500000000000003
 40
1.0
 40
1.0
 40
1.0
 40
1.0
 10
1.932526566979752
 20
0.1312888353574351
 30
0.0
 10
1.941858639295856
 20
0.1160690255286665
 30
0.0
 10
1.954326321075706
 20
0.1011544307537217
 30
0.0
 10
1.975151922193593
 20
0.0806906845745909
 30
0.0
 10
1.982479488158394
 20
0.0741417888128653
 30
0.0
 10
1.997797101690405
 20
0.0615405883246277
 30
0.0
 10
2.005826182485857
 20
0.0554629793713562
 30
0.0
 10
2.030499615121967
 20
0.0381506296716851
 30
0.0
 10
2.047660703934683
 20
0.0278465987959919
 30
0.0
 10
2.083104959406251
 20
0.0092386621358446
 30
0.0
 10
2.10139257256814
 20
0.0009419672591155
 30
0.0
 10
2.13894185926542
 20
-0.0138776036780375
 30
0.0
 10
2.158026006636758
 20
-0.0203247412400439
 30
0.0
 10
2.19642685060882
 20
-0.0314717287495254
 30
0.0
 10
2.215796335426024
 20
-0.0361904850832508
 30
0.0
 10
2.274366259425002
 20
-0.0480596572825145
 30
0.0
 10
2.314022413971889
 20
-0.0529555051348319
 30
0.0
 10
2.35425
 20
-0.0550883708117476
 30
0.0
  0
SPLINE
  5
96
330
1F
100
AcDbEntity
  8
0
  6
Continuous
 62
     7
370
    25
100
AcDbSpline
210
0.0
220
0.0
230
1.0
 70
     8
 71
     3
 72
    20
 73
    16
 74
     0
 42
0.00000001
 43
0.00000001
 40
0.0
 40
0.0
 40
0.0
 40
0.0
 40
0.2499999999999995
 40
0.2499999999999995
 40
0.499999999999999
 40
0.499999999999999
 40
0.6249999999999996
 40
0.6249999999999996
 40
0.75
 40
0.75
 40
0.8750000000000006
 40
0.8750000000000006
 40
0.9375000000000002
 40
0.9375000000000002
 40
1.0
 40
1.0
 40
1.0
 40
1.0
 10
2.35425
 20
-0.054417807319519
 30
0.0
 10
2.314141060186025
 20
-0.0522995980560616
 30
0.0
 10
2.274646748772915
 20
-0.0474322393810521
 30
0.0
 10
2.19696322744931
 20
-0.0317393545915371
 30
0.0
 10
2.15876934831794
 20
-0.0209401257100767
 30
0.0
 10
2.102705606553898
 20
0.0010776032933756
 30
0.0
 10
2.084280037415987
 20
0.0093930735650238
 30
0.0
 10
2.048750830659827
 20
0.0279771079345727
 30
0.0
 10
2.031490870700499
 20
0.0383159527601359
 30
0.0
 10
1.998680164490072
 20
0.0612817539428813
 30
0.0
 10
1.98336269147449
 20
0.0737221453774213
 30
0.0
 10
1.962551244094134
 20
0.0940986390093091
 30
0.0
 10
1.955934685941481
 20
0.1012370528052869
 30
0.0
 10
1.943912341636657
 20
0.1158437540275169
 30
0.0
 10
1.938490291947614
 20
0.1233129549135337
 30
0.0
 10
1.933787693748386
 20
0.1309600169654708
 30
0.0
  0
SPLINE
  5
98
330
1F
100
AcDbEntity
  8
0
  6
Continuous
 62
     7
370
    25
100
AcDbSpline
210
0.0
220
0.0
230
1.0
 70
     8
 71
     3
 72
    14
 73
    10
 74
     0
 42
0.00000001
 43
0.00000001
 40
0.0
 40
0.0
 40
0.0
 40
0.0
 40
0.5000000000000016
 40
0.5000000000000016
 40
0.750000000000002
 40
0.750000000000002
 40
0.875000000000001
 40
0.875000000000001
 40
1.0
 40
1.0
 40
1.0
 40
1.0
 10
1.955161948649293
 20
0.1418446247158023
 30
0.0
 10
1.950269692162237
 20
0.1418446247158023
 30
0.0
 10
1.945289503918652
 20
0.1413269003745246
 30
0.0
 10
1.938295729337487
 20
0.1392318606547466
 30
0.0
 10
1.936027064444719
 20
0.1383282768696346
 30
0.0
 10
1.933303737262621
 20
0.1362031722414203
 30
0.0
 10
1.932520901138572
 20
0.1353497917582417
 30
0.0
 10
1.931793990786193
 20
0.133339466831762
 30
0.0
 10
1.931955363819307
 20
0.1322204187379612
 30
0.0
 10
1.932526566979752
 20
0.1312888353574347
 30
0.0
  0
SPLINE
  5
9B
330
1F
100
AcDbEntity
  8
0
  6
Continuous
 62
     7
370
    25
100
AcDbSpline
210
0.0
220
0.0
230
1.0
 70
     8
 71
     3
 72
    14
 73
    10
 74
     0
 42
0.00000001
 43
0.00000001
 40
0.0
 40
0.0
 40
0.0
 40
0.0
 40
0.4999999999999998
 40
0.4999999999999998
 40
0.7499999999999999
 40
0.7499999999999999
 40
0.8749999999999999
 40
0.8749999999999999
 40
1.0
 40
1.0
 40
1.0
 40
1.0
 10
1.955161948649293
 20
-0.1072036085644203
 30
0.0
 10
1.950229029047009
 20
-0.1072036085644203
 30
0.0
 10
1.945346107702057
 20
-0.1077688052318912
 30
0.0
 10
1.938359933412384
 20
-0.1100249202513438
 30
0.0
 10
1.936069761568443
 20
-0.1110055030865164
 30
0.0
 10
1.93332596675536
 20
-0.1132740723307704
 30
0.0
 10
1.932540180001265
 20
-0.1141702017484801
 30
0.0
 10
1.931791387099049
 20
-0.1163064546932806
 30
0.0
 10
1.931950850161566
 20
-0.1174795219242165
 30
0.0
 10
1.932526566979752
 20
-0.1184512046425817
 30
0.0
  0
SPLINE
  5
9C
330
1F
100
AcDbEntity
  8
0
  6
Continuous
 62
     7
370
    25
100
AcDbSpline
210
0.0
220
0.0
230
1.0
 70
     8
 71
     3
 72
    24
 73
    20
 74
     0
 42
0.00000001
 43
0.00000001
 40
0.0
 40
0.0
 40
0.0
 40
0.0
 40
0.0624999999999999
 40
0.0624999999999999
 40
0.1249999999999998
 40
0.1249999999999998
 40
0.1874999999999997
 40
0.1874999999999997
 40
0.2499999999999996
 40
0.2499999999999996
 40
0.3749999999999994
 40
0.3749999999999994
 40
0.4999999999999992
 40
0.4999999999999992
 40
0.7500000000000003
 40
0.7500000000000003
 40
0.8750000000000002
 40
0.8750000000000002
 40
1.0
 40
1.0
 40
1.0
 40
1.0
 10
1.932526566979752
 20
-0.1184512046425816
 30
0.0
 10
1.937186745774976
 20
-0.1263165562473455
 30
0.0
 10
1.942616188097905
 20
-0.1336120636008186
 30
0.0
 10
1.954713468913964
 20
-0.1471611637168948
 30
0.0
 10
1.961250969724984
 20
-0.1532780629983673
 30
0.0
 10
1.975117233327748
 20
-0.1645074035788918
 30
0.0
 10
1.982448006956625
 20
-0.1696169106101726
 30
0.0
 10
1.99779840749991
 20
-0.1790180640054897
 30
0.0
 10
2.005841195254747
 20
-0.1833145303803131
 30
0.0
 10
2.03042442976877
 20
-0.1949723976065802
 30
0.0
 10
2.047559978630102
 20
-0.2012227102241048
 30
0.0
 10
2.083017673664237
 20
-0.2117383978475506
 30
0.0
 10
2.101415239769159
 20
-0.2160033930410005
 30
0.0
 10
2.157670764727369
 20
-0.2266066706964624
 30
0.0
 10
2.196038862472951
 20
-0.2307747364863502
 30
0.0
 10
2.254622825155098
 20
-0.2350454812577953
 30
0.0
 10
2.274325763317652
 20
-0.2361145306347841
 30
0.0
 10
2.314065038125338
 20
-0.2377275486095723
 30
0.0
 10
2.334146713082354
 20
-0.2382713715385036
 30
0.0
 10
2.35425
 20
-0.2385956493334681
 30
0.0
  0
SPLINE
  5
9F
330
1F
100
AcDbEntity
  8
0
  6
Continuous
 62
     7
370
    25
100
AcDbSpline
210
0.0
220
0.0
230
1.0
 70
     8
 71
     3
 72
    14
 73
    10
 74
     0
 42
0.00000001
 43
0.00000001
 40
0.0
 40
0.0
 40
0.0
 40
0.0
 40
0.5
 40
0.5
 40
0.75
 40
0.75
 40
0.875
 40
0.875
 40
1.0
 40
1.0
 40
1.0
 40
1.0
 10
1.955161948649293
 20
-0.2490482332802248
 30
0.0
 10
1.950248074188567
 20
-0.2490482332802247
 30
0.0
 10
1.945322494113559
 20
-0.2491032055980507
 30
0.0
 10
1.938324900886062
 20
-0.2492818397863251
 30
0.0
 10
1.936041544199878
 20
-0.2493578631643429
 30
0.0
 10
1.933335727691039
 20
-0.2494993092842465
 30
0.0
 10
1.932531388090514
 20
-0.249553637330601
 30
0.0
 10
1.931796750462408
 20
-0.2496584211215523
 30
0.0
 10
1.931943691979306
 20
-0.2497068950032831
 30
0.0
 10
1.932526566979524
 20
-0.2497400400000238
 30
0.0
  0
SPLINE
  5
A0
330
1F
100
AcDbEntity
  8
0
  6
Continuous
 62
     7
370
    25
100
AcDbSpline
210
0.0
220
0.0
230
1.0
 70
     8
 71
     3
 72
     9
 73
     5
 74
     0
 42
0.00000001
 43
0.00000001
 40
0.0
 40
0.0
 40
0.0
 40
0.0
 40
0.6514245551293889
 40
0.9999999999999999
 40
0.9999999999999999
 40
0.9999999999999999
 40
0.9999999999999999
 10
1.932526566979752
 20
-0.2497400400000163
 30
0.0
 10
1.935629714485556
 20
-0.2498284806961917
 30
0.0
 10
1.940393347482454
 20
-0.2499642457598188
 30
0.0
 10
1.946341371719535
 20
-0.2493325567420718
 30
0.0
 10
1.948414706914077
 20
-0.2491123654616907
 30
0.0
  0
SPLINE
  5
A1
330
1F
100
AcDbEntity
  8
0
  6
Continuous
 62
     7
370
    25
100
AcDbSpline
210
0.0
220
0.0
230
1.0
 70
     8
 71
     3
 72
    19
 73
    15
 74
     0
 42
0.00000001
 43
0.00000001
 40
0.0
 40
0.0
 40
0.0
 40
0.0
 40
0.0225888230139825
 40
0.063393709754471
 40
0.1484125495143893
 40
0.2063181123753468
 40
0.2642479114530796
 40
0.3830548353893543
 40
0.4859860395065116
 40
0.5889582576037832
 40
0.6944832584089546
 40
0.8000226541528627
 40
0.8998424467576376
 40
1.0
 40
1.0
 40
1.0
 40
1.0
 10
1.936903906534164
 20
0.2497131166784067
 30
0.0
 10
1.938670556979617
 20
0.2497311523010044
 30
0.0
 10
1.943628518955209
 20
0.2497817678210556
 30
0.0
 10
1.957720384911286
 20
0.2482862613521637
 30
0.0
 10
1.977631983039452
 20
0.2448673363738072
 30
0.0
 10
2.001903727622426
 20
0.2396816138754886
 30
0.0
 10
2.031969942233095
 20
0.2328160854276951
 30
0.0
 10
2.070326803232805
 20
0.2238019958353553
 30
0.0
 10
2.117106996207605
 20
0.2135371450661097
 30
0.0
 10
2.163441074939063
 20
0.2044421345199139
 30
0.0
 10
2.211226321104708
 20
0.1965533548154021
 30
0.0
 10
2.25929775508225
 20
0.1903200509481151
 30
0.0
 10
2.30702402954684
 20
0.1857700284496029
 30
0.0
 10
2.338490294399506
 20
0.1842623773025124
 30
0.0
 10
2.35425
 20
0.1835072785217182
 30
0.0
  0
SPLINE
  5
A5
330
1F
100
AcDbEntity
  8
0
  6
Continuous
 62
     7
370
    25
100
AcDbSpline
210
0.0
220
0.0
230
1.0
 70
     8
 71
     3
 72
    20
 73
    16
 74
     0
 42
0.00000001
 43
0.00000001
 40
0.0
 40
0.0
 40
0.0
 40
0.0
 40
0.2499999999999989
 40
0.2499999999999989
 40
0.4999999999999979
 40
0.4999999999999979
 40
0.6249999999999981
 40
0.6249999999999981
 40
0.7499999999999983
 40
0.7499999999999983
 40
0.8749999999999987
 40
0.8749999999999987
 40
0.9374999999999993
 40
0.9374999999999993
 40
1.0
 40
1.0
 40
1.0
 40
1.0
 10
2.35425
 20
-0.2376793138363491
 30
0.0
 10
2.314141060186026
 20
-0.2370431879253753
 30
0.0
 10
2.274646748772915
 20
-0.2355864000626531
 30
0.0
 10
2.196963227449311
 20
-0.2299509895919712
 30
0.0
 10
2.15876934831794
 20
-0.2258225397608101
 30
0.0
 10
2.102705606553898
 20
-0.2153097656381958
 30
0.0
 10
2.084280037415987
 20
-0.2110634178749174
 30
0.0
 10
2.048750830659827
 20
-0.2005715825878407
 30
0.0
 10
2.031490870700499
 20
-0.1942948141129793
 30
0.0
 10
1.998680164490072
 20
-0.1787649490619618
 30
0.0
 10
1.98336269147449
 20
-0.1696525659377881
 30
0.0
 10
1.962551244094134
 20
-0.1528695592437894
 30
0.0
 10
1.955934685941481
 20
-0.1466947879602012
 30
0.0
 10
1.943912341636657
 20
-0.133274256995419
 30
0.0
 10
1.938490291947613
 20
-0.126035148534467
 30
0.0
 10
1.933787693748386
 20
-0.1181223862506181
 30
0.0
  0
SPLINE
  5
A6
330
1F
100
AcDbEntity
  8
0
  6
Continuous
 62
     7
370
    25
100
AcDbSpline
210
0.0
220
0.0
230
1.0
 70
     8
 71
     3
 72
    14
 73
    10
 74
     0
 42
0.00000001
 43
0.00000001
 40
0.0
 40
0.0
 40
0.0
 40
0.0
 40
0.0025874425267646
 40
0.0961396473362681
 40
0.1901121416236394
 40
0.2767357634632098
 40
0.4204144164825569
 40
0.6791658897428909
 40
1.0
 40
1.0
 40
1.0
 40
1.0
 10
1.933787693748386
 20
-0.118122386250618
 30
0.0
 10
1.933780726963805
 20
-0.1181105900228767
 30
0.0
 10
1.933521867412052
 20
-0.117672286499913
 30
0.0
 10
1.933154802332189
 20
-0.1167258212607592
 30
0.0
 10
1.933223982769752
 20
-0.1152776047933254
 30
0.0
 10
1.933938386357149
 20
-0.1136947271845686
 30
0.0
 10
1.935820358742882
 20
-0.1117314628962543
 30
0.0
 10
1.939428153635769
 20
-0.1096171419123234
 30
0.0
 10
1.94274000614909
 20
-0.1089053469851571
 30
0.0
 10
1.944573307881624
 20
-0.1085113273638322
 30
0.0
  0
SPLINE
  5
AB
330
1F
100
AcDbEntity
  8
0
  6
Continuous
 62
     7
370
    25
100
AcDbSpline
210
0.0
220
0.0
230
1.0
 70
     8
 71
     3
 72
    14
 73
    10
 74
     0
 42
0.00000001
 43
0.00000001
 40
0.0
 40
0.0
 40
0.0
 40
0.0
 40
0.1249999999999994
 40
0.1249999999999994
 40
0.2499999999999989
 40
0.2499999999999989
 40
0.4999999999999991
 40
0.4999999999999991
 40
1.0
 40
1.0
 40
1.0
 40
1.0
 10
1.933787693748385
 20
0.1309600169654707
 30
0.0
 10
1.933208708967315
 20
0.1319015246938379
 30
0.0
 10
1.933052118566955
 20
0.1330287330016655
 30
0.0
 10
1.933801689220079
 20
0.1350501320430419
 30
0.0
 10
1.934595289370449
 20
0.1358992972437876
 30
0.0
 10
1.937334293890584
 20
0.1380128156160632
 30
0.0
 10
1.939628330191575
 20
0.138919321476605
 30
0.0
 10
1.946630086307227
 20
0.1409976001418848
 30
0.0
 10
1.951584465271144
 20
0.1415118242058064
 30
0.0
 10
1.956507983801887
 20
0.1415109759055279
 30
0.0
  0
SPLINE
  5
AE
330
1F
100
AcDbEntity
  8
0
  6
Continuous
 62
     7
370
    25
100
AcDbSpline
210
0.0
220
0.0
230
1.0
 70
     8
 71
     3
 72
    12
 73
     8
 74
     0
 42
0.00000001
 43
0.00000001
 40
0.0
 40
0.0
 40
0.0
 40
0.0
 40
0.2500000000000118
 40
0.2500000000000118
 40
0.5000000000000235
 40
0.5000000000000235
 40
1.0
 40
1.0
 40
1.0
 40
1.0
 10
3.36855236059795
 20
0.1364477786737962
 30
0.0
 10
3.367105598075514
 20
0.1377140993043961
 30
0.0
 10
3.365008317898982
 20
0.1387674451058798
 30
0.0
 10
3.360043792578892
 20
0.1402163180752369
 30
0.0
 10
3.357152438815151
 20
0.14061182539341
 30
0.0
 10
3.348453471651079
 20
0.1406125680831405
 30
0.0
 10
3.342840784249396
 20
0.1389800871561444
 30
0.0
 10
3.33994763940205
 20
0.1364477786737962
 30
0.0
  0
SPLINE
  5
B0
330
1F
100
AcDbEntity
  8
0
  6
Continuous
 62
     7
370
    25
100
AcDbSpline
210
0.0
220
0.0
230
1.0
 70
     8
 71
     3
 72
    14
 73
    10
 74
     0
 42
0.00000001
 43
0.00000001
 40
0.0
 40
0.0
 40
0.0
 40
0.0
 40
0.25
 40
0.25
 40
0.5
 40
0.5
 40
0.75
 40
0.75
 40
1.0
 40
1.0
 40
1.0
 40
1.0
 10
3.33994763940205
 20
-0.0472507014682118
 30
0.0
 10
3.341274305116126
 20
-0.049215435129495
 30
0.0
 10
3.343219826246472
 20
-0.0509623037167442
 30
0.0
 10
3.348116175502321
 20
-0.0534787651707968
 30
0.0
 10
3.351121310431798
 20
-0.0542389549975331
 30
0.0
 10
3.357290772882308
 20
-0.0542529617923187
 30
0.0
 10
3.360286312315341
 20
-0.0535197432546075
 30
0.0
 10
3.365290172773627
 20
-0.0509661252642894
 30
0.0
 10
3.367223317080127
 20
-0.0492189565524277
 30
0.0
 10
3.36855236059795
 20
-0.047250701468216
 30
0.0
  0
SPLINE
  5
B2
330
1F
100
AcDbEntity
  8
0
  6
Continuous
 62
     7
370
    25
100
AcDbSpline
210
0.0
220
0.0
230
1.0
 70
     8
 71
     3
 72
    12
 73
     8
 74
     0
 42
0.00000001
 43
0.00000001
 40
0.0
 40
0.0
 40
0.0
 40
0.0
 40
0.2500000000000118
 40
0.2500000000000118
 40
0.5000000000000235
 40
0.5000000000000235
 40
1.0
 40
1.0
 40
1.0
 40
1.0
 10
3.168552360597951
 20
0.1364477786737962
 30
0.0
 10
3.167105598075515
 20
0.1377140993043961
 30
0.0
 10
3.165008317898983
 20
0.1387674451058795
 30
0.0
 10
3.160043792578894
 20
0.140216318075237
 30
0.0
 10
3.157152438815151
 20
0.14061182539341
 30
0.0
 10
3.148453471651078
 20
0.1406125680831405
 30
0.0
 10
3.142840784249397
 20
0.1389800871561442
 30
0.0
 10
3.13994763940205
 20
0.1364477786737962
 30
0.0
  0
SPLINE
  5
B4
330
1F
100
AcDbEntity
  8
0
  6
Continuous
 62
     7
370
    25
100
AcDbSpline
210
0.0
220
0.0
230
1.0
 70
     8
 71
     3
 72
    14
 73
    10
 74
     0
 42
0.00000001
 43
0.00000001
 40
0.0
 40
0.0
 40
0.0
 40
0.0
 40
0.25
 40
0.25
 40
0.5
 40
0.5
 40
0.75
 40
0.75
 40
1.0
 40
1.0
 40
1.0
 40
1.0
 10
3.13994763940205
 20
-0.0472507014682118
 30
0.0
 10
3.141274305116126
 20
-0.0492154351294948
 30
0.0
 10
3.143219826246471
 20
-0.0509623037167452
 30
0.0
 10
3.148116175502321
 20
-0.0534787651707969
 30
0.0
 10
3.151121310431799
 20
-0.054238954997533
 30
0.0
 10
3.157290772882307
 20
-0.0542529617923187
 30
0.0
 10
3.16028631231534
 20
-0.0535197432546077
 30
0.0
 10
3.165290172773627
 20
-0.0509661252642898
 30
0.0
 10
3.167223317080127
 20
-0.0492189565524274
 30
0.0
 10
3.168552360597951
 20
-0.0472507014682157
 30
0.0
  0
SPLINE
  5
B6
330
1F
100
AcDbEntity
  8
0
  6
Continuous
 62
     7
370
    25
100
AcDbSpline
210
0.0
220
0.0
230
1.0
 70
     8
 71
     3
 72
    12
 73
     8
 74
     0
 42
0.00000001
 43
0.00000001
 40
0.0
 40
0.0
 40
0.0
 40
0.0
 40
0.2499999999999882
 40
0.2499999999999882
 40
0.4999999999999765
 40
0.4999999999999765
 40
1.0
 40
1.0
 40
1.0
 40
1.0
 10
2.96855236059795
 20
0.1364477786737962
 30
0.0
 10
2.967105598075515
 20
0.1377140993043962
 30
0.0
 10
2.965008317898982
 20
0.1387674451058797
 30
0.0
 10
2.960043792578893
 20
0.1402163180752373
 30
0.0
 10
2.957152438815149
 20
0.1406118253934101
 30
0.0
 10
2.948453471651077
 20
0.14061256808314
 30
0.0
 10
2.942840784249398
 20
0.1389800871561444
 30
0.0
 10
2.93994763940205
 20
0.1364477786737962
 30
0.0
  0
SPLINE
  5
B8
330
1F
100
AcDbEntity
  8
0
  6
Continuous
 62
     7
370
    25
100
AcDbSpline
210
0.0
220
0.0
230
1.0
 70
     8
 71
     3
 72
    14
 73
    10
 74
     0
 42
0.00000001
 43
0.00000001
 40
0.0
 40
0.0
 40
0.0
 40
0.0
 40
0.25
 40
0.25
 40
0.5
 40
0.5
 40
0.75
 40
0.75
 40
1.0
 40
1.0
 40
1.0
 40
1.0
 10
2.93994763940205
 20
-0.0472507014682118
 30
0.0
 10
2.941274305116125
 20
-0.0492154351294948
 30
0.0
 10
2.943219826246472
 20
-0.0509623037167448
 30
0.0
 10
2.94811617550232
 20
-0.0534787651707968
 30
0.0
 10
2.951121310431798
 20
-0.0542389549975329
 30
0.0
 10
2.957290772882307
 20
-0.0542529617923189
 30
0.0
 10
2.960286312315342
 20
-0.0535197432546081
 30
0.0
 10
2.965290172773626
 20
-0.0509661252642893
 30
0.0
 10
2.967223317080127
 20
-0.0492189565524277
 30
0.0
 10
2.96855236059795
 20
-0.0472507014682157
 30
0.0
  0
SPLINE
  5
BA
330
1F
100
AcDbEntity
  8
0
  6
Continuous
 62
     7
370
    25
100
AcDbSpline
210
0.0
220
0.0
230
1.0
 70
     8
 71
     3
 72
    12
 73
     8
 74
     0
 42
0.00000001
 43
0.00000001
 40
0.0
 40
0.0
 40
0.0
 40
0.0
 40
0.2500000000000118
 40
0.2500000000000118
 40
0.5000000000000235
 40
0.5000000000000235
 40
1.0
 40
1.0
 40
1.0
 40
1.0
 10
2.76855236059795
 20
0.1364477786737962
 30
0.0
 10
2.767105598075514
 20
0.1377140993043965
 30
0.0
 10
2.765008317898981
 20
0.13876744510588
 30
0.0
 10
2.760043792578892
 20
0.1402163180752379
 30
0.0
 10
2.757152438815145
 20
0.1406118253934105
 30
0.0
 10
2.748453471651072
 20
0.1406125680831394
 30
0.0
 10
2.742840784249397
 20
0.1389800871561452
 30
0.0
 10
2.739947639402051
 20
0.1364477786737962
 30
0.0
  0
SPLINE
  5
BC
330
1F
100
AcDbEntity
  8
0
  6
Continuous
 62
     7
370
    25
100
AcDbSpline
210
0.0
220
0.0
230
1.0
 70
     8
 71
     3
 72
    14
 73
    10
 74
     0
 42
0.00000001
 43
0.00000001
 40
0.0
 40
0.0
 40
0.0
 40
0.0
 40
0.25
 40
0.25
 40
0.5
 40
0.5
 40
0.75
 40
0.75
 40
1.0
 40
1.0
 40
1.0
 40
1.0
 10
2.739947639402051
 20
-0.0472507014682118
 30
0.0
 10
2.741274305116125
 20
-0.0492154351294946
 30
0.0
 10
2.743219826246477
 20
-0.050962303716749
 30
0.0
 10
2.748116175502326
 20
-0.0534787651707987
 30
0.0
 10
2.751121310431802
 20
-0.0542389549975336
 30
0.0
 10
2.75729077288231
 20
-0.0542529617923182
 30
0.0
 10
2.760286312315344
 20
-0.0535197432546065
 30
0.0
 10
2.765290172773628
 20
-0.0509661252642886
 30
0.0
 10
2.767223317080127
 20
-0.0492189565524273
 30
0.0
 10
2.76855236059795
 20
-0.047250701468216
 30
0.0
  0
SPLINE
  5
BE
330
1F
100
AcDbEntity
  8
0
  6
Continuous
 62
     7
370
    25
100
AcDbSpline
210
0.0
220
0.0
230
1.0
 70
     8
 71
     3
 72
    12
 73
     8
 74
     0
 42
0.00000001
 43
0.00000001
 40
0.0
 40
0.0
 40
0.0
 40
0.0
 40
0.25
 40
0.25
 40
0.5
 40
0.5
 40
1.0
 40
1.0
 40
1.0
 40
1.0
 10
3.26855236059795
 20
0.1364477786737963
 30
0.0
 10
3.267105598075513
 20
0.1377140993043965
 30
0.0
 10
3.265008317898981
 20
0.1387674451058806
 30
0.0
 10
3.260043792578889
 20
0.1402163180752382
 30
0.0
 10
3.257152438815145
 20
0.1406118253934106
 30
0.0
 10
3.248453471651071
 20
0.1406125680831394
 30
0.0
 10
3.242840784249398
 20
0.1389800871561448
 30
0.0
 10
3.239947639402051
 20
0.1364477786737963
 30
0.0
  0
SPLINE
  5
C0
330
1F
100
AcDbEntity
  8
0
  6
Continuous
 62
     7
370
    25
100
AcDbSpline
210
0.0
220
0.0
230
1.0
 70
     8
 71
     3
 72
    14
 73
    10
 74
     0
 42
0.00000001
 43
0.00000001
 40
0.0
 40
0.0
 40
0.0
 40
0.0
 40
0.25
 40
0.25
 40
0.5
 40
0.5
 40
0.75
 40
0.75
 40
1.0
 40
1.0
 40
1.0
 40
1.0
 10
3.239947639402051
 20
-0.0472507014682119
 30
0.0
 10
3.241274305116126
 20
-0.0492154351294942
 30
0.0
 10
3.243219826246479
 20
-0.0509623037167493
 30
0.0
 10
3.248116175502328
 20
-0.053478765170799
 30
0.0
 10
3.251121310431804
 20
-0.0542389549975338
 30
0.0
 10
3.257290772882311
 20
-0.0542529617923179
 30
0.0
 10
3.260286312315344
 20
-0.053519743254607
 30
0.0
 10
3.265290172773627
 20
-0.0509661252642887
 30
0.0
 10
3.267223317080127
 20
-0.0492189565524267
 30
0.0
 10
3.26855236059795
 20
-0.0472507014682157
 30
0.0
  0
SPLINE
  5
C2
330
1F
100
AcDbEntity
  8
0
  6
Continuous
 62
     7
370
    25
100
AcDbSpline
210
0.0
220
0.0
230
1.0
 70
     8
 71
     3
 72
    12
 73
     8
 74
     0
 42
0.00000001
 43
0.00000001
 40
0.0
 40
0.0
 40
0.0
 40
0.0
 40
0.2500000000000118
 40
0.2500000000000118
 40
0.5000000000000235
 40
0.5000000000000235
 40
1.0
 40
1.0
 40
1.0
 40
1.0
 10
3.06855236059795
 20
0.1364477786737963
 30
0.0
 10
3.067105598075513
 20
0.1377140993043965
 30
0.0
 10
3.06500831789898
 20
0.1387674451058807
 30
0.0
 10
3.060043792578889
 20
0.1402163180752382
 30
0.0
 10
3.057152438815145
 20
0.1406118253934105
 30
0.0
 10
3.048453471651071
 20
0.1406125680831396
 30
0.0
 10
3.042840784249398
 20
0.1389800871561449
 30
0.0
 10
3.039947639402051
 20
0.1364477786737963
 30
0.0
  0
SPLINE
  5
C4
330
1F
100
AcDbEntity
  8
0
  6
Continuous
 62
     7
370
    25
100
AcDbSpline
210
0.0
220
0.0
230
1.0
 70
     8
 71
     3
 72
    14
 73
    10
 74
     0
 42
0.00000001
 43
0.00000001
 40
0.0
 40
0.0
 40
0.0
 40
0.0
 40
0.25
 40
0.25
 40
0.5
 40
0.5
 40
0.75
 40
0.75
 40
1.0
 40
1.0
 40
1.0
 40
1.0
 10
3.039947639402051
 20
-0.0472507014682119
 30
0.0
 10
3.041274305116127
 20
-0.0492154351294944
 30
0.0
 10
3.043219826246478
 20
-0.0509623037167487
 30
0.0
 10
3.048116175502326
 20
-0.053478765170799
 30
0.0
 10
3.051121310431801
 20
-0.0542389549975337
 30
0.0
 10
3.05729077288231
 20
-0.0542529617923181
 30
0.0
 10
3.060286312315343
 20
-0.0535197432546073
 30
0.0
 10
3.065290172773626
 20
-0.0509661252642895
 30
0.0
 10
3.067223317080126
 20
-0.0492189565524271
 30
0.0
 10
3.06855236059795
 20
-0.047250701468216
 30
0.0
  0
SPLINE
  5
C6
330
1F
100
AcDbEntity
  8
0
  6
Continuous
 62
     7
370
    25
100
AcDbSpline
210
0.0
220
0.0
230
1.0
 70
     8
 71
     3
 72
    12
 73
     8
 74
     0
 42
0.00000001
 43
0.00000001
 40
0.0
 40
0.0
 40
0.0
 40
0.0
 40
0.25
 40
0.25
 40
0.5
 40
0.5
 40
1.0
 40
1.0
 40
1.0
 40
1.0
 10
2.56855236059795
 20
0.1364477786737962
 30
0.0
 10
2.567105598075513
 20
0.1377140993043963
 30
0.0
 10
2.565008317898981
 20
0.1387674451058804
 30
0.0
 10
2.560043792578891
 20
0.140216318075238
 30
0.0
 10
2.557152438815146
 20
0.1406118253934105
 30
0.0
 10
2.548453471651072
 20
0.1406125680831395
 30
0.0
 10
2.542840784249397
 20
0.1389800871561451
 30
0.0
 10
2.539947639402051
 20
0.1364477786737962
 30
0.0
  0
SPLINE
  5
C8
330
1F
100
AcDbEntity
  8
0
  6
Continuous
 62
     7
370
    25
100
AcDbSpline
210
0.0
220
0.0
230
1.0
 70
     8
 71
     3
 72
    14
 73
    10
 74
     0
 42
0.00000001
 43
0.00000001
 40
0.0
 40
0.0
 40
0.0
 40
0.0
 40
0.25
 40
0.25
 40
0.5
 40
0.5
 40
0.75
 40
0.75
 40
1.0
 40
1.0
 40
1.0
 40
1.0
 10
2.539947639402051
 20
-0.0472507014682118
 30
0.0
 10
2.541274305116126
 20
-0.0492154351294945
 30
0.0
 10
2.543219826246476
 20
-0.0509623037167486
 30
0.0
 10
2.548116175502327
 20
-0.0534787651707987
 30
0.0
 10
2.551121310431802
 20
-0.0542389549975337
 30
0.0
 10
2.557290772882312
 20
-0.0542529617923181
 30
0.0
 10
2.560286312315343
 20
-0.0535197432546074
 30
0.0
 10
2.565290172773627
 20
-0.0509661252642895
 30
0.0
 10
2.567223317080126
 20
-0.0492189565524269
 30
0.0
 10
2.56855236059795
 20
-0.0472507014682157
 30
0.0
  0
SPLINE
  5
CA
330
1F
100
AcDbEntity
  8
0
  6
Continuous
 62
     7
370
    25
100
AcDbSpline
210
0.0
220
0.0
230
1.0
 70
     8
 71
     3
 72
    12
 73
     8
 74
     0
 42
0.00000001
 43
0.00000001
 40
0.0
 40
0.0
 40
0.0
 40
0.0
 40
0.25
 40
0.25
 40
0.5
 40
0.5
 40
1.0
 40
1.0
 40
1.0
 40
1.0
 10
2.86855236059795
 20
0.1364477786737963
 30
0.0
 10
2.867105598075514
 20
0.1377140993043963
 30
0.0
 10
2.865008317898982
 20
0.1387674451058796
 30
0.0
 10
2.860043792578893
 20
0.1402163180752372
 30
0.0
 10
2.857152438815151
 20
0.1406118253934099
 30
0.0
 10
2.84845347165108
 20
0.1406125680831405
 30
0.0
 10
2.842840784249398
 20
0.1389800871561443
 30
0.0
 10
2.839947639402051
 20
0.1364477786737963
 30
0.0
  0
SPLINE
  5
CC
330
1F
100
AcDbEntity
  8
0
  6
Continuous
 62
     7
370
    25
100
AcDbSpline
210
0.0
220
0.0
230
1.0
 70
     8
 71
     3
 72
    14
 73
    10
 74
     0
 42
0.00000001
 43
0.00000001
 40
0.0
 40
0.0
 40
0.0
 40
0.0
 40
0.25
 40
0.25
 40
0.5
 40
0.5
 40
0.75
 40
0.75
 40
1.0
 40
1.0
 40
1.0
 40
1.0
 10
2.839947639402051
 20
-0.0472507014682119
 30
0.0
 10
2.841274305116126
 20
-0.0492154351294947
 30
0.0
 10
2.843219826246472
 20
-0.0509623037167451
 30
0.0
 10
2.848116175502319
 20
-0.053478765170797
 30
0.0
 10
2.851121310431799
 20
-0.054238954997533
 30
0.0
 10
2.857290772882306
 20
-0.0542529617923188
 30
0.0
 10
2.860286312315341
 20
-0.0535197432546081
 30
0.0
 10
2.865290172773626
 20
-0.0509661252642898
 30
0.0
 10
2.867223317080126
 20
-0.0492189565524278
 30
0.0
 10
2.86855236059795
 20
-0.047250701468216
 30
0.0
  0
SPLINE
  5
CE
330
1F
100
AcDbEntity
  8
0
  6
Continuous
 62
     7
370
    25
100
AcDbSpline
210
0.0
220
0.0
230
1.0
 70
     8
 71
     3
 72
    12
 73
     8
 74
     0
 42
0.00000001
 43
0.00000001
 40
0.0
 40
0.0
 40
0.0
 40
0.0
 40
0.25
 40
0.25
 40
0.5
 40
0.5
 40
1.0
 40
1.0
 40
1.0
 40
1.0
 10
2.66855236059795
 20
0.1364477786737963
 30
0.0
 10
2.667105598075513
 20
0.1377140993043962
 30
0.0
 10
2.665008317898983
 20
0.1387674451058802
 30
0.0
 10
2.660043792578893
 20
0.140216318075237
 30
0.0
 10
2.657152438815149
 20
0.14061182539341
 30
0.0
 10
2.648453471651079
 20
0.1406125680831406
 30
0.0
 10
2.642840784249398
 20
0.138980087156144
 30
0.0
 10
2.639947639402051
 20
0.1364477786737963
 30
0.0
  0
SPLINE
  5
D0
330
1F
100
AcDbEntity
  8
0
  6
Continuous
 62
     7
370
    25
100
AcDbSpline
210
0.0
220
0.0
230
1.0
 70
     8
 71
     3
 72
    14
 73
    10
 74
     0
 42
0.00000001
 43
0.00000001
 40
0.0
 40
0.0
 40
0.0
 40
0.0
 40
0.25
 40
0.25
 40
0.5
 40
0.5
 40
0.75
 40
0.75
 40
1.0
 40
1.0
 40
1.0
 40
1.0
 10
2.639947639402051
 20
-0.0472507014682119
 30
0.0
 10
2.641274305116126
 20
-0.0492154351294947
 30
0.0
 10
2.643219826246473
 20
-0.0509623037167454
 30
0.0
 10
2.648116175502322
 20
-0.0534787651707978
 30
0.0
 10
2.651121310431798
 20
-0.0542389549975331
 30
0.0
 10
2.657290772882307
 20
-0.0542529617923186
 30
0.0
 10
2.66028631231534
 20
-0.0535197432546081
 30
0.0
 10
2.665290172773627
 20
-0.0509661252642903
 30
0.0
 10
2.667223317080126
 20
-0.0492189565524273
 30
0.0
 10
2.66855236059795
 20
-0.0472507014682157
 30
0.0
  0
SPLINE
  5
D2
330
1F
100
AcDbEntity
  8
0
  6
Continuous
 62
     7
370
    25
100
AcDbSpline
210
0.0
220
0.0
230
1.0
 70
     8
 71
     3
 72
    12
 73
     8
 74
     0
 42
0.00000001
 43
0.00000001
 40
0.0
 40
0.0
 40
0.0
 40
0.0
 40
0.2499999999999846
 40
0.2499999999999846
 40
0.4999999999999897
 40
0.4999999999999897
 40
1.0
 40
1.0
 40
1.0
 40
1.0
 10
2.46855236059795
 20
0.1364477786737963
 30
0.0
 10
2.467105598075513
 20
0.1377140993043963
 30
0.0
 10
2.465008317898981
 20
0.1387674451058801
 30
0.0
 10
2.460043792578892
 20
0.1402163180752376
 30
0.0
 10
2.457152438815147
 20
0.1406118253934104
 30
0.0
 10
2.448453471651074
 20
0.1406125680831398
 30
0.0
 10
2.442840784249398
 20
0.1389800871561447
 30
0.0
 10
2.439947639402051
 20
0.1364477786737963
 30
0.0
  0
SPLINE
  5
D4
330
1F
100
AcDbEntity
  8
0
  6
Continuous
 62
     7
370
    25
100
AcDbSpline
210
0.0
220
0.0
230
1.0
 70
     8
 71
     3
 72
    14
 73
    10
 74
     0
 42
0.00000001
 43
0.00000001
 40
0.0
 40
0.0
 40
0.0
 40
0.0
 40
0.25
 40
0.25
 40
0.5
 40
0.5
 40
0.75
 40
0.75
 40
1.0
 40
1.0
 40
1.0
 40
1.0
 10
2.439947639402051
 20
-0.0472507014682119
 30
0.0
 10
2.441274305116126
 20
-0.0492154351294944
 30
0.0
 10
2.443219826246475
 20
-0.0509623037167467
 30
0.0
 10
2.448116175502323
 20
-0.0534787651707983
 30
0.0
 10
2.4511213104318
 20
-0.0542389549975333
 30
0.0
 10
2.457290772882309
 20
-0.0542529617923185
 30
0.0
 10
2.460286312315343
 20
-0.0535197432546081
 30
0.0
 10
2.465290172773626
 20
-0.0509661252642893
 30
0.0
 10
2.467223317080125
 20
-0.0492189565524273
 30
0.0
 10
2.46855236059795
 20
-0.047250701468216
 30
0.0
  0
SPLINE
  5
D6
330
1F
100
AcDbEntity
  8
0
  6
Continuous
 62
     7
370
    25
100
AcDbSpline
210
0.0
220
0.0
230
1.0
 70
     8
 71
     3
 72
    10
 73
     6
 74
     0
 42
0.00000001
 43
0.00000001
 40
0.0
 40
0.0
 40
0.0
 40
0.0
 40
0.5
 40
0.5
 40
1.0
 40
1.0
 40
1.0
 40
1.0
 10
2.36855236059795
 20
-0.0466676487596457
 30
0.0
 10
2.36722416283927
 20
-0.0485881663100099
 30
0.0
 10
2.365268748604286
 20
-0.0502715685830198
 30
0.0
 10
2.360343854637103
 20
-0.0525831772591525
 30
0.0
 10
2.357320502546181
 20
-0.0531941361212757
 30
0.0
 10
2.35425
 20
-0.0530305870938337
 30
0.0
  0
SPLINE
  5
D7
330
1F
100
AcDbEntity
  8
0
  6
Continuous
 62
     7
370
    25
100
AcDbSpline
210
0.0
220
0.0
230
1.0
 70
     8
 71
     3
 72
     8
 73
     4
 74
     0
 42
0.00000001
 43
0.00000001
 40
0.0
 40
0.0
 40
0.0
 40
0.0
 40
1.0
 40
1.0
 40
1.0
 40
1.0
 10
2.36855236059795
 20
0.1364477786737962
 30
0.0
 10
2.365655357576898
 20
0.1389834641339705
 30
0.0
 10
2.360090822691391
 20
0.1406120730750863
 30
0.0
 10
2.35425
 20
0.1406120730750862
 30
0.0
  0
SPLINE
  5
D9
330
1F
100
AcDbEntity
  8
0
  6
Continuous
 62
     7
370
    25
100
AcDbSpline
210
0.0
220
0.0
230
1.0
 70
     8
 71
     3
 72
     8
 73
     4
 74
     0
 42
0.00000001
 43
0.00000001
 40
0.0
 40
0.0
 40
0.0
 40
0.0
 40
1.0
 40
1.0
 40
1.0
 40
1.0
 10
2.397999999999974
 20
-0.0005446291278533
 30
0.0
 10
2.38896296742309
 20
-0.016270112743828
 30
0.0
 10
2.378971876444591
 20
-0.0316032287441282
 30
0.0
 10
2.368552360597956
 20
-0.046667648759648
 30
0.0
  0
SPLINE
  5
DA
330
1F
100
AcDbEntity
  8
0
  6
Continuous
 62
     7
370
    25
100
AcDbSpline
210
0.0
220
0.0
230
1.0
 70
     8
 71
     3
 72
     8
 73
     4
 74
     0
 42
0.00000001
 43
0.00000001
 40
0.0000001999998063
 40
0.0000001999998063
 40
0.0000001999998063
 40
0.0000001999998063
 40
0.0000510000486331
 40
0.0000510000486331
 40
0.0000510000486331
 40
0.0000510000486331
 10
2.4
 20
-0.0005474020500245
 30
0.0
 10
2.399333332692562
 20
-0.0005474020500245
 30
0.0
 10
2.398666664744331
 20
-0.0005464777516278
 30
0.0
 10
2.397999999999974
 20
-0.0005446291278533
 30
0.0
  0
SPLINE
  5
DC
330
1F
100
AcDbEntity
  8
0
  6
Continuous
 62
     7
370
    25
100
AcDbSpline
210
0.0
220
0.0
230
1.0
 70
     8
 71
     3
 72
     8
 73
     4
 74
     0
 42
0.00000001
 43
0.00000001
 40
0.0000001999998082
 40
0.0000001999998082
 40
0.0000001999998082
 40
0.0000001999998082
 40
0.0000510000481365
 40
0.0000510000481365
 40
0.0000510000481365
 40
0.0000510000481365
 10
2.4
 20
-0.0016040500470545
 30
0.0
 10
2.399333332699105
 20
-0.0016040500470545
 30
0.0
 10
2.398666664763953
 20
-0.0016031305029012
 30
0.0
 10
2.398
 20
-0.0016012913882128
 30
0.0
  0
SPLINE
  5
DD
330
1F
100
AcDbEntity
  8
0
  6
Continuous
 62
     7
370
    25
100
AcDbSpline
210
0.0
220
0.0
230
1.0
 70
     8
 71
     3
 72
     8
 73
     4
 74
     0
 42
0.00000001
 43
0.00000001
 40
0.0
 40
0.0
 40
0.0
 40
0.0
 40
1.0
 40
1.0
 40
1.0
 40
1.0
 10
2.398
 20
-0.0016012913882126
 30
0.0
 10
2.388934249384628
 20
-0.017203699320358
 30
0.0
 10
2.378948248995938
 20
-0.032421766647831
 30
0.0
 10
2.36855236059795
 20
-0.0473770363275644
 30
0.0
  0
SPLINE
  5
DE
330
1F
100
AcDbEntity
  8
0
  6
Continuous
 62
     7
370
    25
100
AcDbSpline
210
0.0
220
0.0
230
1.0
 70
     8
 71
     3
 72
    10
 73
     6
 74
     0
 42
0.00000001
 43
0.00000001
 40
0.0
 40
0.0
 40
0.0
 40
0.0
 40
0.5
 40
0.5
 40
1.0
 40
1.0
 40
1.0
 40
1.0
 10
2.36855236059795
 20
-0.0473770363275646
 30
0.0
 10
2.367221385732615
 20
-0.0492917440741268
 30
0.0
 10
2.365263798910945
 20
-0.0509684205910632
 30
0.0
 10
2.360332338104119
 20
-0.0532652775833378
 30
0.0
 10
2.357314530817506
 20
-0.053870418213523
 30
0.0
 10
2.35425
 20
-0.0537074363875079
 30
0.0
  0
SPLINE
  5
DF
330
1F
100
AcDbEntity
  8
0
  6
Continuous
 62
     7
370
    25
100
AcDbSpline
210
0.0
220
0.0
230
1.0
 70
     8
 71
     3
 72
     8
 73
     4
 74
     0
 42
0.00000001
 43
0.00000001
 40
0.0
 40
0.0
 40
0.0
 40
0.0
 40
1.0
 40
1.0
 40
1.0
 40
1.0
 10
2.36855236059795
 20
-0.1022257448984371
 30
0.0
 10
2.365651298322703
 20
-0.1047560838858164
 30
0.0
 10
2.360084087344989
 20
-0.106375934880443
 30
0.0
 10
2.35425
 20
-0.106375934880443
 30
0.0
  0
SPLINE
  5
E1
330
1F
100
AcDbEntity
  8
0
  6
Continuous
 62
     7
370
    25
100
AcDbSpline
210
0.0
220
0.0
230
1.0
 70
     8
 71
     3
 72
    10
 73
     6
 74
     0
 42
0.00000001
 43
0.00000001
 40
0.0
 40
0.0
 40
0.0
 40
0.0
 40
0.5
 40
0.5
 40
1.0
 40
1.0
 40
1.0
 40
1.0
 10
2.86855236059795
 20
-0.1022257448984371
 30
0.0
 10
2.865653149368355
 20
-0.1047544693830815
 30
0.0
 10
2.860090779439807
 20
-0.1063739538897876
 30
0.0
 10
2.848431554031912
 20
-0.1063779120801038
 30
0.0
 10
2.842847286146421
 20
-0.1047548492439433
 30
0.0
 10
2.83994763940205
 20
-0.1022257448984376
 30
0.0
  0
SPLINE
  5
E3
330
1F
100
AcDbEntity
  8
0
  6
Continuous
 62
     7
370
    25
100
AcDbSpline
210
0.0
220
0.0
230
1.0
 70
     8
 71
     3
 72
    14
 73
    10
 74
     0
 42
0.00000001
 43
0.00000001
 40
0.0
 40
0.0
 40
0.0
 40
0.0
 40
0.25
 40
0.25
 40
0.5
 40
0.5
 40
0.75
 40
0.75
 40
1.0
 40
1.0
 40
1.0
 40
1.0
 10
2.839947639402051
 20
-0.0479590770066087
 30
0.0
 10
2.841276673752195
 20
-0.0499174666766933
 30
0.0
 10
2.84322379345217
 20
-0.0516572677628837
 30
0.0
 10
2.848124285404749
 20
-0.0541588409458273
 30
0.0
 10
2.851136730715281
 20
-0.0549166527670189
 30
0.0
 10
2.857307697177899
 20
-0.0549253381369726
 30
0.0
 10
2.860294369759409
 20
-0.0541916670627266
 30
0.0
 10
2.865272881340367
 20
-0.0516675166721381
 30
0.0
 10
2.867221194827637
 20
-0.049920607417205
 30
0.0
 10
2.868552360598259
 20
-0.0479590770067363
 30
0.0
  0
SPLINE
  5
E5
330
1F
100
AcDbEntity
  8
0
  6
Continuous
 62
     7
370
    25
100
AcDbSpline
210
0.0
220
0.0
230
1.0
 70
     8
 71
     3
 72
     8
 73
     4
 74
     0
 42
0.00000001
 43
0.00000001
 40
0.0
 40
0.0
 40
0.0
 40
0.0
 40
1.0
 40
1.0
 40
1.0
 40
1.0
 10
2.410500000000006
 20
-0.0005474020500264
 30
0.0
 10
2.419567632414476
 20
-0.0163510611403781
 30
0.0
 10
2.429556868043063
 20
-0.0318641754208239
 30
0.0
 10
2.439947639402051
 20
-0.0472507014682074
 30
0.0
  0
SPLINE
  5
E6
330
1F
100
AcDbEntity
  8
0
  6
Continuous
 62
     7
370
    25
100
AcDbSpline
210
0.0
220
0.0
230
1.0
 70
     8
 71
     3
 72
     8
 73
     4
 74
     0
 42
0.00000001
 43
0.00000001
 40
0.0
 40
0.0
 40
0.0
 40
0.0
 40
1.0
 40
1.0
 40
1.0
 40
1.0
 10
2.468552360597944
 20
-0.0472507014682101
 30
0.0
 10
2.478943131956915
 20
-0.03186417542082
 30
0.0
 10
2.48893236758551
 20
-0.016351061140375
 30
0.0
 10
2.497999999999994
 20
-0.0005474020500264
 30
0.0
  0
SPLINE
  5
E8
330
1F
100
AcDbEntity
  8
0
  6
Continuous
 62
     7
370
    25
100
AcDbSpline
210
0.0
220
0.0
230
1.0
 70
     8
 71
     3
 72
     8
 73
     4
 74
     0
 42
0.00000001
 43
0.00000001
 40
0.0
 40
0.0
 40
0.0
 40
0.0
 40
1.0
 40
1.0
 40
1.0
 40
1.0
 10
2.510499999999979
 20
-0.0005474020500347
 30
0.0
 10
2.519567632414488
 20
-0.0163510611403726
 30
0.0
 10
2.529556868043096
 20
-0.0318641754208098
 30
0.0
 10
2.539947639402068
 20
-0.0472507014681961
 30
0.0
  0
SPLINE
  5
E9
330
1F
100
AcDbEntity
  8
0
  6
Continuous
 62
     7
370
    25
100
AcDbSpline
210
0.0
220
0.0
230
1.0
 70
     8
 71
     3
 72
     8
 73
     4
 74
     0
 42
0.00000001
 43
0.00000001
 40
0.0
 40
0.0
 40
0.0
 40
0.0
 40
1.0
 40
1.0
 40
1.0
 40
1.0
 10
2.568552360597962
 20
-0.0472507014682152
 30
0.0
 10
2.578943131956919
 20
-0.0318641754208199
 30
0.0
 10
2.58893236758551
 20
-0.0163510611403729
 30
0.0
 10
2.597999999999999
 20
-0.0005474020500251
 30
0.0
  0
SPLINE
  5
EB
330
1F
100
AcDbEntity
  8
0
  6
Continuous
 62
     7
370
    25
100
AcDbSpline
210
0.0
220
0.0
230
1.0
 70
     8
 71
     3
 72
     8
 73
     4
 74
     0
 42
0.00000001
 43
0.00000001
 40
0.0
 40
0.0
 40
0.0
 40
0.0
 40
1.0
 40
1.0
 40
1.0
 40
1.0
 10
2.610499999999994
 20
-0.00054740205003
 30
0.0
 10
2.619567632414491
 20
-0.0163510611403748
 30
0.0
 10
2.629556868043085
 20
-0.0318641754208201
 30
0.0
 10
2.639947639402063
 20
-0.0472507014682076
 30
0.0
  0
SPLINE
  5
EC
330
1F
100
AcDbEntity
  8
0
  6
Continuous
 62
     7
370
    25
100
AcDbSpline
210
0.0
220
0.0
230
1.0
 70
     8
 71
     3
 72
     8
 73
     4
 74
     0
 42
0.00000001
 43
0.00000001
 40
0.0
 40
0.0
 40
0.0
 40
0.0
 40
1.0
 40
1.0
 40
1.0
 40
1.0
 10
2.668552360597961
 20
-0.0472507014682153
 30
0.0
 10
2.678943131956919
 20
-0.03186417542082
 30
0.0
 10
2.688932367585501
 20
-0.0163510611403706
 30
0.0
 10
2.69799999999999
 20
-0.0005474020500227
 30
0.0
  0
SPLINE
  5
EE
330
1F
100
AcDbEntity
  8
0
  6
Continuous
 62
     7
370
    25
100
AcDbSpline
210
0.0
220
0.0
230
1.0
 70
     8
 71
     3
 72
     8
 73
     4
 74
     0
 42
0.00000001
 43
0.00000001
 40
0.0
 40
0.0
 40
0.0
 40
0.0
 40
1.0
 40
1.0
 40
1.0
 40
1.0
 10
2.710499999999979
 20
-0.0005474020500347
 30
0.0
 10
2.719567632414488
 20
-0.0163510611403725
 30
0.0
 10
2.729556868043088
 20
-0.0318641754208123
 30
0.0
 10
2.73994763940206
 20
-0.0472507014681984
 30
0.0
  0
SPLINE
  5
EF
330
1F
100
AcDbEntity
  8
0
  6
Continuous
 62
     7
370
    25
100
AcDbSpline
210
0.0
220
0.0
230
1.0
 70
     8
 71
     3
 72
     8
 73
     4
 74
     0
 42
0.00000001
 43
0.00000001
 40
0.0
 40
0.0
 40
0.0
 40
0.0
 40
1.0
 40
1.0
 40
1.0
 40
1.0
 10
2.768552360597962
 20
-0.0472507014682152
 30
0.0
 10
2.778943131956919
 20
-0.03186417542082
 30
0.0
 10
2.788932367585501
 20
-0.0163510611403705
 30
0.0
 10
2.79799999999999
 20
-0.0005474020500228
 30
0.0
  0
SPLINE
  5
F1
330
1F
100
AcDbEntity
  8
0
  6
Continuous
 62
     7
370
    25
100
AcDbSpline
210
0.0
220
0.0
230
1.0
 70
     8
 71
     3
 72
     8
 73
     4
 74
     0
 42
0.00000001
 43
0.00000001
 40
0.0
 40
0.0
 40
0.0
 40
0.0
 40
1.0
 40
1.0
 40
1.0
 40
1.0
 10
2.810499999999985
 20
-0.0005474020500326
 30
0.0
 10
2.819567632414483
 20
-0.0163510611403773
 30
0.0
 10
2.829556868043084
 20
-0.03186417542082
 30
0.0
 10
2.839947639402063
 20
-0.0472507014682074
 30
0.0
  0
SPLINE
  5
F2
330
1F
100
AcDbEntity
  8
0
  6
Continuous
 62
     7
370
    25
100
AcDbSpline
210
0.0
220
0.0
230
1.0
 70
     8
 71
     3
 72
     8
 73
     4
 74
     0
 42
0.00000001
 43
0.00000001
 40
0.0
 40
0.0
 40
0.0
 40
0.0
 40
1.0
 40
1.0
 40
1.0
 40
1.0
 10
2.868552360597965
 20
-0.0472507014682165
 30
0.0
 10
2.878943131956907
 20
-0.0318641754208174
 30
0.0
 10
2.88893236758549
 20
-0.0163510611403688
 30
0.0
 10
2.897999999999982
 20
-0.0005474020500232
 30
0.0
  0
SPLINE
  5
F4
330
1F
100
AcDbEntity
  8
0
  6
Continuous
 62
     7
370
    25
100
AcDbSpline
210
0.0
220
0.0
230
1.0
 70
     8
 71
     3
 72
     8
 73
     4
 74
     0
 42
0.00000001
 43
0.00000001
 40
0.0
 40
0.0
 40
0.0
 40
0.0
 40
1.0
 40
1.0
 40
1.0
 40
1.0
 10
2.910499999999985
 20
-0.0005474020500331
 30
0.0
 10
2.919567632414482
 20
-0.0163510611403769
 30
0.0
 10
2.929556868043083
 20
-0.0318641754208185
 30
0.0
 10
2.939947639402061
 20
-0.0472507014682051
 30
0.0
  0
SPLINE
  5
F5
330
1F
100
AcDbEntity
  8
0
  6
Continuous
 62
     7
370
    25
100
AcDbSpline
210
0.0
220
0.0
230
1.0
 70
     8
 71
     3
 72
     8
 73
     4
 74
     0
 42
0.00000001
 43
0.00000001
 40
0.0
 40
0.0
 40
0.0
 40
0.0
 40
1.0
 40
1.0
 40
1.0
 40
1.0
 10
2.968552360597952
 20
-0.0472507014682122
 30
0.0
 10
2.978943131956909
 20
-0.0318641754208179
 30
0.0
 10
2.988932367585496
 20
-0.0163510611403711
 30
0.0
 10
2.997999999999984
 20
-0.0005474020500241
 30
0.0
  0
SPLINE
  5
F7
330
1F
100
AcDbEntity
  8
0
  6
Continuous
 62
     7
370
    25
100
AcDbSpline
210
0.0
220
0.0
230
1.0
 70
     8
 71
     3
 72
     8
 73
     4
 74
     0
 42
0.00000001
 43
0.00000001
 40
0.0
 40
0.0
 40
0.0
 40
0.0
 40
1.0
 40
1.0
 40
1.0
 40
1.0
 10
3.010499999999984
 20
-0.0005474020500331
 30
0.0
 10
3.019567632414493
 20
-0.0163510611403707
 30
0.0
 10
3.029556868043093
 20
-0.0318641754208098
 30
0.0
 10
3.039947639402064
 20
-0.0472507014681955
 30
0.0
  0
SPLINE
  5
F8
330
1F
100
AcDbEntity
  8
0
  6
Continuous
 62
     7
370
    25
100
AcDbSpline
210
0.0
220
0.0
230
1.0
 70
     8
 71
     3
 72
     8
 73
     4
 74
     0
 42
0.00000001
 43
0.00000001
 40
0.0
 40
0.0
 40
0.0
 40
0.0
 40
1.0
 40
1.0
 40
1.0
 40
1.0
 10
3.068552360597951
 20
-0.0472507014682122
 30
0.0
 10
3.078943131956908
 20
-0.0318641754208179
 30
0.0
 10
3.088932367585487
 20
-0.0163510611403687
 30
0.0
 10
3.097999999999975
 20
-0.0005474020500216
 30
0.0
  0
SPLINE
  5
FA
330
1F
100
AcDbEntity
  8
0
  6
Continuous
 62
     7
370
    25
100
AcDbSpline
210
0.0
220
0.0
230
1.0
 70
     8
 71
     3
 72
     8
 73
     4
 74
     0
 42
0.00000001
 43
0.00000001
 40
0.0
 40
0.0
 40
0.0
 40
0.0
 40
1.0
 40
1.0
 40
1.0
 40
1.0
 10
3.110499999999995
 20
-0.0005474020500299
 30
0.0
 10
3.119567632414492
 20
-0.0163510611403744
 30
0.0
 10
3.12955686804309
 20
-0.0318641754208179
 30
0.0
 10
3.139947639402068
 20
-0.0472507014682052
 30
0.0
  0
SPLINE
  5
FB
330
1F
100
AcDbEntity
  8
0
  6
Continuous
 62
     7
370
    25
100
AcDbSpline
210
0.0
220
0.0
230
1.0
 70
     8
 71
     3
 72
     8
 73
     4
 74
     0
 42
0.00000001
 43
0.00000001
 40
0.0
 40
0.0
 40
0.0
 40
0.0
 40
1.0
 40
1.0
 40
1.0
 40
1.0
 10
3.168552360597964
 20
-0.0472507014682157
 30
0.0
 10
3.17894313195692
 20
-0.0318641754208215
 30
0.0
 10
3.188932367585499
 20
-0.0163510611403722
 30
0.0
 10
3.197999999999987
 20
-0.0005474020500254
 30
0.0
  0
SPLINE
  5
FD
330
1F
100
AcDbEntity
  8
0
  6
Continuous
 62
     7
370
    25
100
AcDbSpline
210
0.0
220
0.0
230
1.0
 70
     8
 71
     3
 72
     8
 73
     4
 74
     0
 42
0.00000001
 43
0.00000001
 40
0.0
 40
0.0
 40
0.0
 40
0.0
 40
1.0
 40
1.0
 40
1.0
 40
1.0
 10
3.210499999999984
 20
-0.0005474020500331
 30
0.0
 10
3.219567632414493
 20
-0.0163510611403705
 30
0.0
 10
3.229556868043093
 20
-0.0318641754208096
 30
0.0
 10
3.239947639402064
 20
-0.0472507014681952
 30
0.0
  0
SPLINE
  5
FE
330
1F
100
AcDbEntity
  8
0
  6
Continuous
 62
     7
370
    25
100
AcDbSpline
210
0.0
220
0.0
230
1.0
 70
     8
 71
     3
 72
     8
 73
     4
 74
     0
 42
0.00000001
 43
0.00000001
 40
0.0
 40
0.0
 40
0.0
 40
0.0
 40
1.0
 40
1.0
 40
1.0
 40
1.0
 10
3.268552360597965
 20
-0.0472507014682165
 30
0.0
 10
3.278943131956923
 20
-0.0318641754208206
 30
0.0
 10
3.288932367585504
 20
-0.0163510611403699
 30
0.0
 10
3.297999999999993
 20
-0.0005474020500213
 30
0.0
  0
SPLINE
  5
100
330
1F
100
AcDbEntity
  8
0
  6
Continuous
 62
     7
370
    25
100
AcDbSpline
210
0.0
220
0.0
230
1.0
 70
     8
 71
     3
 72
     8
 73
     4
 74
     0
 42
0.00000001
 43
0.00000001
 40
0.0
 40
0.0
 40
0.0
 40
0.0
 40
1.0
 40
1.0
 40
1.0
 40
1.0
 10
3.310499999999991
 20
-0.0005474020500309
 30
0.0
 10
3.319567632414489
 20
-0.0163510611403751
 30
0.0
 10
3.329556868043087
 20
-0.0318641754208183
 30
0.0
 10
3.339947639402066
 20
-0.0472507014682056
 30
0.0
  0
SPLINE
  5
101
330
1F
100
AcDbEntity
  8
0
  6
Continuous
 62
     7
370
    25
100
AcDbSpline
210
0.0
220
0.0
230
1.0
 70
     8
 71
     3
 72
     8
 73
     4
 74
     0
 42
0.00000001
 43
0.00000001
 40
0.0
 40
0.0
 40
0.0
 40
0.0
 40
1.0
 40
1.0
 40
1.0
 40
1.0
 10
3.368552360597965
 20
-0.0472507014682163
 30
0.0
 10
3.378943131956923
 20
-0.0318641754208206
 30
0.0
 10
3.388932367585504
 20
-0.0163510611403698
 30
0.0
 10
3.397999999999993
 20
-0.0005474020500213
 30
0.0
  0
SPLINE
  5
105
330
1F
100
AcDbEntity
  8
0
  6
Continuous
 62
     7
370
    25
100
AcDbSpline
210
0.0
220
0.0
230
1.0
 70
     8
 71
     3
 72
     8
 73
     4
 74
     0
 42
0.00000001
 43
0.00000001
 40
0.0
 40
0.0
 40
0.0
 40
0.0
 40
1.0
 40
1.0
 40
1.0
 40
1.0
 10
3.36855236059795
 20
-0.0479590770066088
 30
0.0
 10
3.378915154225494
 20
-0.0326890518253874
 30
0.0
 10
3.388918703511856
 20
-0.0172580563815695
 30
0.0
 10
3.398000000000001
 20
-0.0016040500470541
 30
0.0
  0
SPLINE
  5
106
330
1F
100
AcDbEntity
  8
0
  6
Continuous
 62
     7
370
    25
100
AcDbSpline
210
0.0
220
0.0
230
1.0
 70
     8
 71
     3
 72
    14
 73
    10
 74
     0
 42
0.00000001
 43
0.00000001
 40
0.0
 40
0.0
 40
0.0
 40
0.0
 40
0.25
 40
0.25
 40
0.5
 40
0.5
 40
0.75
 40
0.75
 40
1.0
 40
1.0
 40
1.0
 40
1.0
 10
3.339947639402051
 20
-0.0479590770066091
 30
0.0
 10
3.341276673752194
 20
-0.0499174666766936
 30
0.0
 10
3.343223793452171
 20
-0.051657267762884
 30
0.0
 10
3.348124285404749
 20
-0.0541588409458275
 30
0.0
 10
3.351136730715281
 20
-0.054916652767019
 30
0.0
 10
3.357307697177899
 20
-0.0549253381369727
 30
0.0
 10
3.360294369759409
 20
-0.0541916670627266
 30
0.0
 10
3.365272881340368
 20
-0.0516675166721381
 30
0.0
 10
3.367221194827637
 20
-0.049920607417205
 30
0.0
 10
3.368552360598259
 20
-0.0479590770067364
 30
0.0
  0
SPLINE
  5
107
330
1F
100
AcDbEntity
  8
0
  6
Continuous
 62
     7
370
    25
100
AcDbSpline
210
0.0
220
0.0
230
1.0
 70
     8
 71
     3
 72
     8
 73
     4
 74
     0
 42
0.00000001
 43
0.00000001
 40
0.0
 40
0.0
 40
0.0
 40
0.0
 40
1.0
 40
1.0
 40
1.0
 40
1.0
 10
3.3105
 20
-0.001604050047054
 30
0.0
 10
3.319601721549484
 20
-0.0172932643543494
 30
0.0
 10
3.329584989966762
 20
-0.0326892642989187
 30
0.0
 10
3.339947639402051
 20
-0.0479590770066087
 30
0.0
  0
SPLINE
  5
109
330
1F
100
AcDbEntity
  8
0
  6
Continuous
 62
     7
370
    25
100
AcDbSpline
210
0.0
220
0.0
230
1.0
 70
     8
 71
     3
 72
     8
 73
     4
 74
     0
 42
0.00000001
 43
0.00000001
 40
0.0
 40
0.0
 40
0.0
 40
0.0
 40
1.0
 40
1.0
 40
1.0
 40
1.0
 10
3.26855236059795
 20
-0.0479590770066088
 30
0.0
 10
3.278915154225494
 20
-0.0326890518253874
 30
0.0
 10
3.288918703511856
 20
-0.0172580563815695
 30
0.0
 10
3.298000000000001
 20
-0.0016040500470541
 30
0.0
  0
SPLINE
  5
10A
330
1F
100
AcDbEntity
  8
0
  6
Continuous
 62
     7
370
    25
100
AcDbSpline
210
0.0
220
0.0
230
1.0
 70
     8
 71
     3
 72
    14
 73
    10
 74
     0
 42
0.00000001
 43
0.00000001
 40
0.0
 40
0.0
 40
0.0
 40
0.0
 40
0.25
 40
0.25
 40
0.5
 40
0.5
 40
0.75
 40
0.75
 40
1.0
 40
1.0
 40
1.0
 40
1.0
 10
3.239947639402051
 20
-0.0479590770066091
 30
0.0
 10
3.241276673752195
 20
-0.0499174666766936
 30
0.0
 10
3.243223793452171
 20
-0.051657267762884
 30
0.0
 10
3.24812428540475
 20
-0.0541588409458274
 30
0.0
 10
3.25113673071528
 20
-0.054916652767019
 30
0.0
 10
3.257307697177899
 20
-0.0549253381369727
 30
0.0
 10
3.260294369759409
 20
-0.0541916670627266
 30
0.0
 10
3.265272881340367
 20
-0.0516675166721381
 30
0.0
 10
3.267221194827637
 20
-0.049920607417205
 30
0.0
 10
3.268552360598259
 20
-0.0479590770067364
 30
0.0
  0
SPLINE
  5
10B
330
1F
100
AcDbEntity
  8
0
  6
Continuous
 62
     7
370
    25
100
AcDbSpline
210
0.0
220
0.0
230
1.0
 70
     8
 71
     3
 72
     8
 73
     4
 74
     0
 42
0.00000001
 43
0.00000001
 40
0.0
 40
0.0
 40
0.0
 40
0.0
 40
1.0
 40
1.0
 40
1.0
 40
1.0
 10
3.2105
 20
-0.001604050047054
 30
0.0
 10
3.219601721549484
 20
-0.0172932643543494
 30
0.0
 10
3.229584989966761
 20
-0.0326892642989187
 30
0.0
 10
3.239947639402051
 20
-0.0479590770066087
 30
0.0
  0
SPLINE
  5
10D
330
1F
100
AcDbEntity
  8
0
  6
Continuous
 62
     7
370
    25
100
AcDbSpline
210
0.0
220
0.0
230
1.0
 70
     8
 71
     3
 72
     8
 73
     4
 74
     0
 42
0.00000001
 43
0.00000001
 40
0.0
 40
0.0
 40
0.0
 40
0.0
 40
1.0
 40
1.0
 40
1.0
 40
1.0
 10
3.168552360597951
 20
-0.0479590770066087
 30
0.0
 10
3.178915154225494
 20
-0.0326890518253874
 30
0.0
 10
3.188918703511856
 20
-0.0172580563815695
 30
0.0
 10
3.198000000000001
 20
-0.0016040500470542
 30
0.0
  0
SPLINE
  5
10E
330
1F
100
AcDbEntity
  8
0
  6
Continuous
 62
     7
370
    25
100
AcDbSpline
210
0.0
220
0.0
230
1.0
 70
     8
 71
     3
 72
    14
 73
    10
 74
     0
 42
0.00000001
 43
0.00000001
 40
0.0
 40
0.0
 40
0.0
 40
0.0
 40
0.25
 40
0.25
 40
0.5
 40
0.5
 40
0.75
 40
0.75
 40
1.0
 40
1.0
 40
1.0
 40
1.0
 10
3.139947639402051
 20
-0.0479590770066087
 30
0.0
 10
3.141276673752194
 20
-0.0499174666766933
 30
0.0
 10
3.14322379345217
 20
-0.0516572677628837
 30
0.0
 10
3.148124285404748
 20
-0.0541588409458273
 30
0.0
 10
3.151136730715281
 20
-0.054916652767019
 30
0.0
 10
3.157307697177899
 20
-0.0549253381369726
 30
0.0
 10
3.160294369759409
 20
-0.0541916670627265
 30
0.0
 10
3.165272881340367
 20
-0.0516675166721381
 30
0.0
 10
3.167221194827637
 20
-0.049920607417205
 30
0.0
 10
3.168552360598259
 20
-0.0479590770067363
 30
0.0
  0
SPLINE
  5
10F
330
1F
100
AcDbEntity
  8
0
  6
Continuous
 62
     7
370
    25
100
AcDbSpline
210
0.0
220
0.0
230
1.0
 70
     8
 71
     3
 72
     8
 73
     4
 74
     0
 42
0.00000001
 43
0.00000001
 40
0.0
 40
0.0
 40
0.0
 40
0.0
 40
1.0
 40
1.0
 40
1.0
 40
1.0
 10
3.1105
 20
-0.001604050047054
 30
0.0
 10
3.119601721549484
 20
-0.0172932643543493
 30
0.0
 10
3.129584989966762
 20
-0.0326892642989186
 30
0.0
 10
3.139947639402052
 20
-0.0479590770066086
 30
0.0
  0
SPLINE
  5
111
330
1F
100
AcDbEntity
  8
0
  6
Continuous
 62
     7
370
    25
100
AcDbSpline
210
0.0
220
0.0
230
1.0
 70
     8
 71
     3
 72
     8
 73
     4
 74
     0
 42
0.00000001
 43
0.00000001
 40
0.0
 40
0.0
 40
0.0
 40
0.0
 40
1.0
 40
1.0
 40
1.0
 40
1.0
 10
3.068552360597951
 20
-0.0479590770066087
 30
0.0
 10
3.078915154225494
 20
-0.0326890518253874
 30
0.0
 10
3.088918703511855
 20
-0.0172580563815695
 30
0.0
 10
3.098000000000001
 20
-0.0016040500470541
 30
0.0
  0
SPLINE
  5
112
330
1F
100
AcDbEntity
  8
0
  6
Continuous
 62
     7
370
    25
100
AcDbSpline
210
0.0
220
0.0
230
1.0
 70
     8
 71
     3
 72
    14
 73
    10
 74
     0
 42
0.00000001
 43
0.00000001
 40
0.0
 40
0.0
 40
0.0
 40
0.0
 40
0.25
 40
0.25
 40
0.5
 40
0.5
 40
0.75
 40
0.75
 40
1.0
 40
1.0
 40
1.0
 40
1.0
 10
3.039947639402051
 20
-0.0479590770066087
 30
0.0
 10
3.041276673752194
 20
-0.0499174666766933
 30
0.0
 10
3.04322379345217
 20
-0.0516572677628837
 30
0.0
 10
3.048124285404748
 20
-0.0541588409458273
 30
0.0
 10
3.05113673071528
 20
-0.054916652767019
 30
0.0
 10
3.057307697177899
 20
-0.0549253381369726
 30
0.0
 10
3.060294369759409
 20
-0.0541916670627265
 30
0.0
 10
3.065272881340368
 20
-0.0516675166721381
 30
0.0
 10
3.067221194827637
 20
-0.049920607417205
 30
0.0
 10
3.068552360598259
 20
-0.0479590770067364
 30
0.0
  0
SPLINE
  5
113
330
1F
100
AcDbEntity
  8
0
  6
Continuous
 62
     7
370
    25
100
AcDbSpline
210
0.0
220
0.0
230
1.0
 70
     8
 71
     3
 72
     8
 73
     4
 74
     0
 42
0.00000001
 43
0.00000001
 40
0.0
 40
0.0
 40
0.0
 40
0.0
 40
1.0
 40
1.0
 40
1.0
 40
1.0
 10
3.0105
 20
-0.001604050047054
 30
0.0
 10
3.019601721549483
 20
-0.0172932643543493
 30
0.0
 10
3.029584989966762
 20
-0.0326892642989186
 30
0.0
 10
3.039947639402051
 20
-0.0479590770066087
 30
0.0
  0
SPLINE
  5
115
330
1F
100
AcDbEntity
  8
0
  6
Continuous
 62
     7
370
    25
100
AcDbSpline
210
0.0
220
0.0
230
1.0
 70
     8
 71
     3
 72
     8
 73
     4
 74
     0
 42
0.00000001
 43
0.00000001
 40
0.0
 40
0.0
 40
0.0
 40
0.0
 40
1.0
 40
1.0
 40
1.0
 40
1.0
 10
2.96855236059795
 20
-0.0479590770066087
 30
0.0
 10
2.978915154225494
 20
-0.0326890518253874
 30
0.0
 10
2.988918703511855
 20
-0.0172580563815695
 30
0.0
 10
2.998000000000001
 20
-0.0016040500470541
 30
0.0
  0
SPLINE
  5
116
330
1F
100
AcDbEntity
  8
0
  6
Continuous
 62
     7
370
    25
100
AcDbSpline
210
0.0
220
0.0
230
1.0
 70
     8
 71
     3
 72
    14
 73
    10
 74
     0
 42
0.00000001
 43
0.00000001
 40
0.0
 40
0.0
 40
0.0
 40
0.0
 40
0.25
 40
0.25
 40
0.5
 40
0.5
 40
0.75
 40
0.75
 40
1.0
 40
1.0
 40
1.0
 40
1.0
 10
2.939947639402051
 20
-0.0479590770066087
 30
0.0
 10
2.941276673752193
 20
-0.0499174666766933
 30
0.0
 10
2.943223793452169
 20
-0.0516572677628837
 30
0.0
 10
2.948124285404749
 20
-0.0541588409458273
 30
0.0
 10
2.951136730715281
 20
-0.0549166527670189
 30
0.0
 10
2.957307697177899
 20
-0.0549253381369726
 30
0.0
 10
2.96029436975941
 20
-0.0541916670627266
 30
0.0
 10
2.965272881340367
 20
-0.0516675166721381
 30
0.0
 10
2.967221194827637
 20
-0.049920607417205
 30
0.0
 10
2.968552360598259
 20
-0.0479590770067363
 30
0.0
  0
SPLINE
  5
117
330
1F
100
AcDbEntity
  8
0
  6
Continuous
 62
     7
370
    25
100
AcDbSpline
210
0.0
220
0.0
230
1.0
 70
     8
 71
     3
 72
     8
 73
     4
 74
     0
 42
0.00000001
 43
0.00000001
 40
0.0
 40
0.0
 40
0.0
 40
0.0
 40
1.0
 40
1.0
 40
1.0
 40
1.0
 10
2.9105
 20
-0.001604050047054
 30
0.0
 10
2.919601721549483
 20
-0.0172932643543494
 30
0.0
 10
2.929584989966762
 20
-0.0326892642989187
 30
0.0
 10
2.939947639402051
 20
-0.0479590770066087
 30
0.0
  0
SPLINE
  5
119
330
1F
100
AcDbEntity
  8
0
  6
Continuous
 62
     7
370
    25
100
AcDbSpline
210
0.0
220
0.0
230
1.0
 70
     8
 71
     3
 72
     8
 73
     4
 74
     0
 42
0.00000001
 43
0.00000001
 40
0.0
 40
0.0
 40
0.0
 40
0.0
 40
1.0
 40
1.0
 40
1.0
 40
1.0
 10
2.86855236059795
 20
-0.0479590770066088
 30
0.0
 10
2.878915154225494
 20
-0.0326890518253875
 30
0.0
 10
2.888918703511855
 20
-0.0172580563815695
 30
0.0
 10
2.898000000000001
 20
-0.0016040500470541
 30
0.0
  0
SPLINE
  5
11A
330
1F
100
AcDbEntity
  8
0
  6
Continuous
 62
     7
370
    25
100
AcDbSpline
210
0.0
220
0.0
230
1.0
 70
     8
 71
     3
 72
     8
 73
     4
 74
     0
 42
0.00000001
 43
0.00000001
 40
0.0
 40
0.0
 40
0.0
 40
0.0
 40
1.0
 40
1.0
 40
1.0
 40
1.0
 10
2.8105
 20
-0.001604050047054
 30
0.0
 10
2.819601721549483
 20
-0.0172932643543494
 30
0.0
 10
2.829584989966762
 20
-0.0326892642989187
 30
0.0
 10
2.839947639402051
 20
-0.0479590770066086
 30
0.0
  0
SPLINE
  5
11C
330
1F
100
AcDbEntity
  8
0
  6
Continuous
 62
     7
370
    25
100
AcDbSpline
210
0.0
220
0.0
230
1.0
 70
     8
 71
     3
 72
     8
 73
     4
 74
     0
 42
0.00000001
 43
0.00000001
 40
0.0
 40
0.0
 40
0.0
 40
0.0
 40
1.0
 40
1.0
 40
1.0
 40
1.0
 10
2.76855236059795
 20
-0.0479590770066087
 30
0.0
 10
2.778915154225494
 20
-0.0326890518253874
 30
0.0
 10
2.788918703511855
 20
-0.0172580563815695
 30
0.0
 10
2.798
 20
-0.0016040500470541
 30
0.0
  0
SPLINE
  5
11D
330
1F
100
AcDbEntity
  8
0
  6
Continuous
 62
     7
370
    25
100
AcDbSpline
210
0.0
220
0.0
230
1.0
 70
     8
 71
     3
 72
    14
 73
    10
 74
     0
 42
0.00000001
 43
0.00000001
 40
0.0
 40
0.0
 40
0.0
 40
0.0
 40
0.25
 40
0.25
 40
0.5
 40
0.5
 40
0.75
 40
0.75
 40
1.0
 40
1.0
 40
1.0
 40
1.0
 10
2.739947639402051
 20
-0.0479590770066087
 30
0.0
 10
2.741276673752194
 20
-0.0499174666766933
 30
0.0
 10
2.74322379345217
 20
-0.0516572677628837
 30
0.0
 10
2.748124285404749
 20
-0.0541588409458273
 30
0.0
 10
2.751136730715281
 20
-0.0549166527670189
 30
0.0
 10
2.757307697177898
 20
-0.0549253381369726
 30
0.0
 10
2.760294369759409
 20
-0.0541916670627265
 30
0.0
 10
2.765272881340367
 20
-0.0516675166721381
 30
0.0
 10
2.767221194827637
 20
-0.049920607417205
 30
0.0
 10
2.768552360598259
 20
-0.0479590770067363
 30
0.0
  0
SPLINE
  5
11E
330
1F
100
AcDbEntity
  8
0
  6
Continuous
 62
     7
370
    25
100
AcDbSpline
210
0.0
220
0.0
230
1.0
 70
     8
 71
     3
 72
     8
 73
     4
 74
     0
 42
0.00000001
 43
0.00000001
 40
0.0
 40
0.0
 40
0.0
 40
0.0
 40
1.0
 40
1.0
 40
1.0
 40
1.0
 10
2.7105
 20
-0.001604050047054
 30
0.0
 10
2.719601721549483
 20
-0.0172932643543494
 30
0.0
 10
2.729584989966761
 20
-0.0326892642989187
 30
0.0
 10
2.739947639402051
 20
-0.0479590770066087
 30
0.0
  0
SPLINE
  5
120
330
1F
100
AcDbEntity
  8
0
  6
Continuous
 62
     7
370
    25
100
AcDbSpline
210
0.0
220
0.0
230
1.0
 70
     8
 71
     3
 72
     8
 73
     4
 74
     0
 42
0.00000001
 43
0.00000001
 40
0.0
 40
0.0
 40
0.0
 40
0.0
 40
1.0
 40
1.0
 40
1.0
 40
1.0
 10
2.66855236059795
 20
-0.0479590770066087
 30
0.0
 10
2.678915154225494
 20
-0.0326890518253874
 30
0.0
 10
2.688918703511856
 20
-0.0172580563815695
 30
0.0
 10
2.698
 20
-0.0016040500470541
 30
0.0
  0
SPLINE
  5
121
330
1F
100
AcDbEntity
  8
0
  6
Continuous
 62
     7
370
    25
100
AcDbSpline
210
0.0
220
0.0
230
1.0
 70
     8
 71
     3
 72
    14
 73
    10
 74
     0
 42
0.00000001
 43
0.00000001
 40
0.0
 40
0.0
 40
0.0
 40
0.0
 40
0.25
 40
0.25
 40
0.5
 40
0.5
 40
0.75
 40
0.75
 40
1.0
 40
1.0
 40
1.0
 40
1.0
 10
2.639947639402051
 20
-0.0479590770066087
 30
0.0
 10
2.641276673752194
 20
-0.0499174666766933
 30
0.0
 10
2.64322379345217
 20
-0.0516572677628837
 30
0.0
 10
2.648124285404748
 20
-0.0541588409458273
 30
0.0
 10
2.65113673071528
 20
-0.0549166527670189
 30
0.0
 10
2.6573076971779
 20
-0.0549253381369726
 30
0.0
 10
2.660294369759409
 20
-0.0541916670627265
 30
0.0
 10
2.665272881340367
 20
-0.0516675166721381
 30
0.0
 10
2.667221194827637
 20
-0.049920607417205
 30
0.0
 10
2.668552360598259
 20
-0.0479590770067363
 30
0.0
  0
SPLINE
  5
122
330
1F
100
AcDbEntity
  8
0
  6
Continuous
 62
     7
370
    25
100
AcDbSpline
210
0.0
220
0.0
230
1.0
 70
     8
 71
     3
 72
     8
 73
     4
 74
     0
 42
0.00000001
 43
0.00000001
 40
0.0
 40
0.0
 40
0.0
 40
0.0
 40
1.0
 40
1.0
 40
1.0
 40
1.0
 10
2.6105
 20
-0.0016040500470539
 30
0.0
 10
2.619601721549484
 20
-0.0172932643543492
 30
0.0
 10
2.629584989966761
 20
-0.0326892642989186
 30
0.0
 10
2.639947639402051
 20
-0.0479590770066086
 30
0.0
  0
SPLINE
  5
124
330
1F
100
AcDbEntity
  8
0
  6
Continuous
 62
     7
370
    25
100
AcDbSpline
210
0.0
220
0.0
230
1.0
 70
     8
 71
     3
 72
     8
 73
     4
 74
     0
 42
0.00000001
 43
0.00000001
 40
0.0
 40
0.0
 40
0.0
 40
0.0
 40
1.0
 40
1.0
 40
1.0
 40
1.0
 10
2.56855236059795
 20
-0.0479590770066087
 30
0.0
 10
2.578915154225494
 20
-0.0326890518253874
 30
0.0
 10
2.588918703511855
 20
-0.0172580563815695
 30
0.0
 10
2.598000000000001
 20
-0.0016040500470541
 30
0.0
  0
SPLINE
  5
125
330
1F
100
AcDbEntity
  8
0
  6
Continuous
 62
     7
370
    25
100
AcDbSpline
210
0.0
220
0.0
230
1.0
 70
     8
 71
     3
 72
    14
 73
    10
 74
     0
 42
0.00000001
 43
0.00000001
 40
0.0
 40
0.0
 40
0.0
 40
0.0
 40
0.25
 40
0.25
 40
0.5
 40
0.5
 40
0.75
 40
0.75
 40
1.0
 40
1.0
 40
1.0
 40
1.0
 10
2.539947639402051
 20
-0.0479590770066087
 30
0.0
 10
2.541276673752194
 20
-0.0499174666766933
 30
0.0
 10
2.54322379345217
 20
-0.0516572677628837
 30
0.0
 10
2.548124285404749
 20
-0.0541588409458272
 30
0.0
 10
2.551136730715281
 20
-0.0549166527670189
 30
0.0
 10
2.557307697177898
 20
-0.0549253381369726
 30
0.0
 10
2.560294369759409
 20
-0.0541916670627265
 30
0.0
 10
2.565272881340367
 20
-0.0516675166721381
 30
0.0
 10
2.567221194827637
 20
-0.049920607417205
 30
0.0
 10
2.568552360598259
 20
-0.0479590770067363
 30
0.0
  0
SPLINE
  5
126
330
1F
100
AcDbEntity
  8
0
  6
Continuous
 62
     7
370
    25
100
AcDbSpline
210
0.0
220
0.0
230
1.0
 70
     8
 71
     3
 72
     8
 73
     4
 74
     0
 42
0.00000001
 43
0.00000001
 40
0.0
 40
0.0
 40
0.0
 40
0.0
 40
1.0
 40
1.0
 40
1.0
 40
1.0
 10
2.5105
 20
-0.001604050047054
 30
0.0
 10
2.519601721549483
 20
-0.0172932643543493
 30
0.0
 10
2.529584989966761
 20
-0.0326892642989186
 30
0.0
 10
2.539947639402051
 20
-0.0479590770066086
 30
0.0
  0
SPLINE
  5
128
330
1F
100
AcDbEntity
  8
0
  6
Continuous
 62
     7
370
    25
100
AcDbSpline
210
0.0
220
0.0
230
1.0
 70
     8
 71
     3
 72
     8
 73
     4
 74
     0
 42
0.00000001
 43
0.00000001
 40
0.0
 40
0.0
 40
0.0
 40
0.0
 40
1.0
 40
1.0
 40
1.0
 40
1.0
 10
2.46855236059795
 20
-0.0479590770066087
 30
0.0
 10
2.478915154225494
 20
-0.0326890518253874
 30
0.0
 10
2.488918703511855
 20
-0.0172580563815694
 30
0.0
 10
2.498000000000001
 20
-0.0016040500470541
 30
0.0
  0
SPLINE
  5
129
330
1F
100
AcDbEntity
  8
0
  6
Continuous
 62
     7
370
    25
100
AcDbSpline
210
0.0
220
0.0
230
1.0
 70
     8
 71
     3
 72
    14
 73
    10
 74
     0
 42
0.00000001
 43
0.00000001
 40
0.0
 40
0.0
 40
0.0
 40
0.0
 40
0.25
 40
0.25
 40
0.5
 40
0.5
 40
0.75
 40
0.75
 40
1.0
 40
1.0
 40
1.0
 40
1.0
 10
2.439947639402051
 20
-0.0479590770066089
 30
0.0
 10
2.441276673752194
 20
-0.0499174666766934
 30
0.0
 10
2.44322379345217
 20
-0.0516572677628838
 30
0.0
 10
2.44812428540475
 20
-0.0541588409458273
 30
0.0
 10
2.45113673071528
 20
-0.0549166527670189
 30
0.0
 10
2.457307697177899
 20
-0.0549253381369726
 30
0.0
 10
2.460294369759408
 20
-0.0541916670627265
 30
0.0
 10
2.465272881340367
 20
-0.0516675166721381
 30
0.0
 10
2.467221194827637
 20
-0.0499206074172049
 30
0.0
 10
2.468552360598259
 20
-0.0479590770067363
 30
0.0
  0
SPLINE
  5
12A
330
1F
100
AcDbEntity
  8
0
  6
Continuous
 62
     7
370
    25
100
AcDbSpline
210
0.0
220
0.0
230
1.0
 70
     8
 71
     3
 72
     8
 73
     4
 74
     0
 42
0.00000001
 43
0.00000001
 40
0.0
 40
0.0
 40
0.0
 40
0.0
 40
1.0
 40
1.0
 40
1.0
 40
1.0
 10
2.4105
 20
-0.0016040500470539
 30
0.0
 10
2.419601721549483
 20
-0.0172932643543492
 30
0.0
 10
2.429584989966762
 20
-0.0326892642989185
 30
0.0
 10
2.439947639402051
 20
-0.0479590770066084
 30
0.0
  0
SPLINE
  5
12D
330
1F
100
AcDbEntity
  8
0
  6
Continuous
 62
     7
370
    25
100
AcDbSpline
210
0.0
220
0.0
230
1.0
 70
     8
 71
     3
 72
    10
 73
     6
 74
     0
 42
0.00000001
 43
0.00000001
 40
0.0
 40
0.0
 40
0.0
 40
0.0
 40
0.5
 40
0.5
 40
1.0
 40
1.0
 40
1.0
 40
1.0
 10
2.56855236059795
 20
-0.1022257448984371
 30
0.0
 10
2.565653149368354
 20
-0.1047544693830815
 30
0.0
 10
2.560090779439808
 20
-0.1063739538897876
 30
0.0
 10
2.548431554031911
 20
-0.1063779120801038
 30
0.0
 10
2.542847286146421
 20
-0.1047548492439433
 30
0.0
 10
2.53994763940205
 20
-0.1022257448984375
 30
0.0
  0
SPLINE
  5
130
330
1F
100
AcDbEntity
  8
0
  6
Continuous
 62
     7
370
    25
100
AcDbSpline
210
0.0
220
0.0
230
1.0
 70
     8
 71
     3
 72
    10
 73
     6
 74
     0
 42
0.00000001
 43
0.00000001
 40
0.0
 40
0.0
 40
0.0
 40
0.0
 40
0.5
 40
0.5
 40
1.0
 40
1.0
 40
1.0
 40
1.0
 10
2.66855236059795
 20
-0.1022257448984371
 30
0.0
 10
2.665653149368355
 20
-0.1047544693830815
 30
0.0
 10
2.660090779439807
 20
-0.1063739538897876
 30
0.0
 10
2.648431554031912
 20
-0.1063779120801038
 30
0.0
 10
2.642847286146421
 20
-0.1047548492439433
 30
0.0
 10
2.63994763940205
 20
-0.1022257448984375
 30
0.0
  0
SPLINE
  5
133
330
1F
100
AcDbEntity
  8
0
  6
Continuous
 62
     7
370
    25
100
AcDbSpline
210
0.0
220
0.0
230
1.0
 70
     8
 71
     3
 72
    10
 73
     6
 74
     0
 42
0.00000001
 43
0.00000001
 40
0.0
 40
0.0
 40
0.0
 40
0.0
 40
0.5
 40
0.5
 40
1.0
 40
1.0
 40
1.0
 40
1.0
 10
2.76855236059795
 20
-0.1022257448984371
 30
0.0
 10
2.765653149368354
 20
-0.1047544693830815
 30
0.0
 10
2.760090779439807
 20
-0.1063739538897876
 30
0.0
 10
2.748431554031912
 20
-0.1063779120801038
 30
0.0
 10
2.742847286146421
 20
-0.1047548492439433
 30
0.0
 10
2.73994763940205
 20
-0.1022257448984376
 30
0.0
  0
SPLINE
  5
136
330
1F
100
AcDbEntity
  8
0
  6
Continuous
 62
     7
370
    25
100
AcDbSpline
210
0.0
220
0.0
230
1.0
 70
     8
 71
     3
 72
    10
 73
     6
 74
     0
 42
0.00000001
 43
0.00000001
 40
0.0
 40
0.0
 40
0.0
 40
0.0
 40
0.5
 40
0.5
 40
1.0
 40
1.0
 40
1.0
 40
1.0
 10
3.26855236059795
 20
-0.1022257448984371
 30
0.0
 10
3.265653149368355
 20
-0.1047544693830815
 30
0.0
 10
3.260090779439808
 20
-0.1063739538897876
 30
0.0
 10
3.248431554031911
 20
-0.1063779120801038
 30
0.0
 10
3.242847286146421
 20
-0.1047548492439433
 30
0.0
 10
3.23994763940205
 20
-0.1022257448984376
 30
0.0
  0
SPLINE
  5
139
330
1F
100
AcDbEntity
  8
0
  6
Continuous
 62
     7
370
    25
100
AcDbSpline
210
0.0
220
0.0
230
1.0
 70
     8
 71
     3
 72
    10
 73
     6
 74
     0
 42
0.00000001
 43
0.00000001
 40
0.0
 40
0.0
 40
0.0
 40
0.0
 40
0.5
 40
0.5
 40
1.0
 40
1.0
 40
1.0
 40
1.0
 10
3.36855236059795
 20
-0.1022257448984371
 30
0.0
 10
3.365653149368354
 20
-0.1047544693830815
 30
0.0
 10
3.360090779439807
 20
-0.1063739538897876
 30
0.0
 10
3.348431554031912
 20
-0.1063779120801038
 30
0.0
 10
3.342847286146422
 20
-0.1047548492439433
 30
0.0
 10
3.33994763940205
 20
-0.1022257448984376
 30
0.0
  0
SPLINE
  5
13C
330
1F
100
AcDbEntity
  8
0
  6
Continuous
 62
     7
370
    25
100
AcDbSpline
210
0.0
220
0.0
230
1.0
 70
     8
 71
     3
 72
    10
 73
     6
 74
     0
 42
0.00000001
 43
0.00000001
 40
0.0
 40
0.0
 40
0.0
 40
0.0
 40
0.5
 40
0.5
 40
1.0
 40
1.0
 40
1.0
 40
1.0
 10
3.068552360597951
 20
-0.1022257448984371
 30
0.0
 10
3.065653149368354
 20
-0.1047544693830815
 30
0.0
 10
3.060090779439807
 20
-0.1063739538897876
 30
0.0
 10
3.048431554031912
 20
-0.1063779120801038
 30
0.0
 10
3.042847286146421
 20
-0.1047548492439433
 30
0.0
 10
3.03994763940205
 20
-0.1022257448984376
 30
0.0
  0
SPLINE
  5
13F
330
1F
100
AcDbEntity
  8
0
  6
Continuous
 62
     7
370
    25
100
AcDbSpline
210
0.0
220
0.0
230
1.0
 70
     8
 71
     3
 72
    10
 73
     6
 74
     0
 42
0.00000001
 43
0.00000001
 40
0.0
 40
0.0
 40
0.0
 40
0.0
 40
0.5
 40
0.5
 40
1.0
 40
1.0
 40
1.0
 40
1.0
 10
3.168552360597951
 20
-0.1022257448984371
 30
0.0
 10
3.165653149368355
 20
-0.1047544693830815
 30
0.0
 10
3.160090779439808
 20
-0.1063739538897876
 30
0.0
 10
3.148431554031911
 20
-0.1063779120801038
 30
0.0
 10
3.142847286146421
 20
-0.1047548492439433
 30
0.0
 10
3.13994763940205
 20
-0.1022257448984376
 30
0.0
  0
SPLINE
  5
142
330
1F
100
AcDbEntity
  8
0
  6
Continuous
 62
     7
370
    25
100
AcDbSpline
210
0.0
220
0.0
230
1.0
 70
     8
 71
     3
 72
    10
 73
     6
 74
     0
 42
0.00000001
 43
0.00000001
 40
0.0
 40
0.0
 40
0.0
 40
0.0
 40
0.5
 40
0.5
 40
1.0
 40
1.0
 40
1.0
 40
1.0
 10
2.96855236059795
 20
-0.1022257448984371
 30
0.0
 10
2.965653149368352
 20
-0.1047544693830815
 30
0.0
 10
2.960090779439807
 20
-0.1063739538897876
 30
0.0
 10
2.948431554031912
 20
-0.1063779120801038
 30
0.0
 10
2.942847286146421
 20
-0.1047548492439433
 30
0.0
 10
2.93994763940205
 20
-0.1022257448984376
 30
0.0
  0
SPLINE
  5
145
330
1F
100
AcDbEntity
  8
0
  6
Continuous
 62
     7
370
    25
100
AcDbSpline
210
0.0
220
0.0
230
1.0
 70
     8
 71
     3
 72
    10
 73
     6
 74
     0
 42
0.00000001
 43
0.00000001
 40
0.0
 40
0.0
 40
0.0
 40
0.0
 40
0.5
 40
0.5
 40
1.0
 40
1.0
 40
1.0
 40
1.0
 10
2.46855236059795
 20
-0.1022257448984371
 30
0.0
 10
2.465653149368355
 20
-0.1047544693830815
 30
0.0
 10
2.460090779439807
 20
-0.1063739538897877
 30
0.0
 10
2.448431554031911
 20
-0.1063779120801037
 30
0.0
 10
2.44284728614642
 20
-0.1047548492439433
 30
0.0
 10
2.439947639402049
 20
-0.1022257448984375
 30
0.0
  0
SPLINE
  5
148
330
1F
100
AcDbEntity
  8
0
  6
Continuous
 62
     7
370
    25
100
AcDbSpline
210
0.0
220
0.0
230
1.0
 70
     8
 71
     3
 72
     8
 73
     4
 74
     0
 42
0.00000001
 43
0.00000001
 40
0.0000004044944948
 40
0.0000004044944948
 40
0.0000004044944948
 40
0.0000004044944948
 40
0.0015105308508266
 40
0.0015105308508266
 40
0.0015105308508266
 40
0.0015105308508266
 10
2.897999999999981
 20
0.1106234195244813
 30
0.0
 10
2.888201136319192
 20
0.1192363845632582
 30
0.0
 10
2.878383289231996
 20
0.1278439533811753
 30
0.0
 10
2.868552360597973
 20
0.1364477786738028
 30
0.0
  0
SPLINE
  5
14A
330
1F
100
AcDbEntity
  8
0
  6
Continuous
 62
     7
370
    25
100
AcDbSpline
210
0.0
220
0.0
230
1.0
 70
     8
 71
     3
 72
     8
 73
     4
 74
     0
 42
0.00000001
 43
0.00000001
 40
0.0000004044944951
 40
0.0000004044944951
 40
0.0000004044944951
 40
0.0000004044944951
 40
0.0015105308508268
 40
0.0015105308508268
 40
0.0015105308508268
 40
0.0015105308508268
 10
3.09799999999998
 20
0.110623419524481
 30
0.0
 10
3.088201136319194
 20
0.1192363845632591
 30
0.0
 10
3.078383289231989
 20
0.1278439533811734
 30
0.0
 10
3.068552360597953
 20
0.1364477786737973
 30
0.0
  0
SPLINE
  5
14C
330
1F
100
AcDbEntity
  8
0
  6
Continuous
 62
     7
370
    25
100
AcDbSpline
210
0.0
220
0.0
230
1.0
 70
     8
 71
     3
 72
     8
 73
     4
 74
     0
 42
0.00000001
 43
0.00000001
 40
0.000000404494495
 40
0.000000404494495
 40
0.000000404494495
 40
0.000000404494495
 40
0.0015105308508269
 40
0.0015105308508269
 40
0.0015105308508269
 40
0.0015105308508269
 10
3.29799999999999
 20
0.1106234195244795
 30
0.0
 10
3.288201136319203
 20
0.1192363845632587
 30
0.0
 10
3.278383289232004
 20
0.1278439533811762
 30
0.0
 10
3.268552360597967
 20
0.1364477786738011
 30
0.0
  0
SPLINE
  5
14E
330
1F
100
AcDbEntity
  8
0
  6
Continuous
 62
     7
370
    25
100
AcDbSpline
210
0.0
220
0.0
230
1.0
 70
     8
 71
     3
 72
     8
 73
     4
 74
     0
 42
0.00000001
 43
0.00000001
 40
0.0000004044944951
 40
0.0000004044944951
 40
0.0000004044944951
 40
0.0000004044944951
 40
0.0015105308508269
 40
0.0015105308508269
 40
0.0015105308508269
 40
0.0015105308508269
 10
2.697999999999991
 20
0.110623419524481
 30
0.0
 10
2.688201136319204
 20
0.1192363845632599
 30
0.0
 10
2.678383289231998
 20
0.127843953381175
 30
0.0
 10
2.668552360597961
 20
0.1364477786737996
 30
0.0
  0
SPLINE
  5
150
330
1F
100
AcDbEntity
  8
0
  6
Continuous
 62
     7
370
    25
100
AcDbSpline
210
0.0
220
0.0
230
1.0
 70
     8
 71
     3
 72
     8
 73
     4
 74
     0
 42
0.00000001
 43
0.00000001
 40
0.0000004044944947
 40
0.0000004044944947
 40
0.0000004044944947
 40
0.0000004044944947
 40
0.0015105308508265
 40
0.0015105308508265
 40
0.0015105308508265
 40
0.0015105308508265
 10
2.497999999999985
 20
0.1106234195244818
 30
0.0
 10
2.488201136319204
 20
0.1192363845632613
 30
0.0
 10
2.478383289231995
 20
0.127843953381175
 30
0.0
 10
2.468552360597947
 20
0.1364477786737955
 30
0.0
  0
SPLINE
  5
152
330
1F
100
AcDbEntity
  8
0
  6
Continuous
 62
     7
370
    25
100
AcDbSpline
210
0.0
220
0.0
230
1.0
 70
     8
 71
     3
 72
     8
 73
     4
 74
     0
 42
0.00000001
 43
0.00000001
 40
0.000000404494495
 40
0.000000404494495
 40
0.000000404494495
 40
0.000000404494495
 40
0.0015105308508266
 40
0.0015105308508266
 40
0.0015105308508266
 40
0.0015105308508266
 10
2.39799999999998
 20
0.1106234195244829
 30
0.0
 10
2.388201136319191
 20
0.1192363845632594
 30
0.0
 10
2.378383289231987
 20
0.1278439533811735
 30
0.0
 10
2.368552360597965
 20
0.1364477786738005
 30
0.0
  0
SPLINE
  5
154
330
1F
100
AcDbEntity
  8
0
  6
Continuous
 62
     7
370
    25
100
AcDbSpline
210
0.0
220
0.0
230
1.0
 70
     8
 71
     3
 72
     8
 73
     4
 74
     0
 42
0.00000001
 43
0.00000001
 40
0.000000404494495
 40
0.000000404494495
 40
0.000000404494495
 40
0.000000404494495
 40
0.0015105308508269
 40
0.0015105308508269
 40
0.0015105308508269
 40
0.0015105308508269
 10
3.397999999999989
 20
0.1106234195244796
 30
0.0
 10
3.388201136319202
 20
0.1192363845632586
 30
0.0
 10
3.378383289232004
 20
0.127843953381176
 30
0.0
 10
3.368552360597967
 20
0.1364477786738008
 30
0.0
  0
SPLINE
  5
156
330
1F
100
AcDbEntity
  8
0
  6
Continuous
 62
     7
370
    25
100
AcDbSpline
210
0.0
220
0.0
230
1.0
 70
     8
 71
     3
 72
     8
 73
     4
 74
     0
 42
0.00000001
 43
0.00000001
 40
0.0000004044944951
 40
0.0000004044944951
 40
0.0000004044944951
 40
0.0000004044944951
 40
0.0015105308508268
 40
0.0015105308508268
 40
0.0015105308508268
 40
0.0015105308508268
 10
2.99799999999998
 20
0.110623419524481
 30
0.0
 10
2.988201136319194
 20
0.1192363845632591
 30
0.0
 10
2.978383289231989
 20
0.1278439533811734
 30
0.0
 10
2.968552360597954
 20
0.1364477786737972
 30
0.0
  0
SPLINE
  5
158
330
1F
100
AcDbEntity
  8
0
  6
Continuous
 62
     7
370
    25
100
AcDbSpline
210
0.0
220
0.0
230
1.0
 70
     8
 71
     3
 72
     8
 73
     4
 74
     0
 42
0.00000001
 43
0.00000001
 40
0.0000004044944951
 40
0.0000004044944951
 40
0.0000004044944951
 40
0.0000004044944951
 40
0.0015105308508268
 40
0.0015105308508268
 40
0.0015105308508268
 40
0.0015105308508268
 10
3.19799999999998
 20
0.110623419524481
 30
0.0
 10
3.188201136319194
 20
0.119236384563259
 30
0.0
 10
3.178383289231996
 20
0.1278439533811754
 30
0.0
 10
3.168552360597961
 20
0.1364477786737992
 30
0.0
  0
SPLINE
  5
15A
330
1F
100
AcDbEntity
  8
0
  6
Continuous
 62
     7
370
    25
100
AcDbSpline
210
0.0
220
0.0
230
1.0
 70
     8
 71
     3
 72
     8
 73
     4
 74
     0
 42
0.00000001
 43
0.00000001
 40
0.0000004044944951
 40
0.0000004044944951
 40
0.0000004044944951
 40
0.0000004044944951
 40
0.0015105308508269
 40
0.0015105308508269
 40
0.0015105308508269
 40
0.0015105308508269
 10
2.597999999999991
 20
0.110623419524481
 30
0.0
 10
2.588201136319205
 20
0.1192363845632599
 30
0.0
 10
2.578383289231998
 20
0.1278439533811747
 30
0.0
 10
2.568552360597962
 20
0.1364477786737994
 30
0.0
  0
SPLINE
  5
15C
330
1F
100
AcDbEntity
  8
0
  6
Continuous
 62
     7
370
    25
100
AcDbSpline
210
0.0
220
0.0
230
1.0
 70
     8
 71
     3
 72
     8
 73
     4
 74
     0
 42
0.00000001
 43
0.00000001
 40
0.0000004044944951
 40
0.0000004044944951
 40
0.0000004044944951
 40
0.0000004044944951
 40
0.0015105308508269
 40
0.0015105308508269
 40
0.0015105308508269
 40
0.0015105308508269
 10
2.79799999999999
 20
0.110623419524481
 30
0.0
 10
2.788201136319204
 20
0.1192363845632598
 30
0.0
 10
2.778383289231998
 20
0.1278439533811748
 30
0.0
 10
2.768552360597961
 20
0.1364477786737994
 30
0.0
  0
SPLINE
  5
15E
330
1F
100
AcDbEntity
  8
0
  6
Continuous
 62
     7
370
    25
100
AcDbSpline
210
0.0
220
0.0
230
1.0
 70
     8
 71
     3
 72
     8
 73
     4
 74
     0
 42
0.00000001
 43
0.00000001
 40
0.0000004031748589
 40
0.0000004031748589
 40
0.0000004031748589
 40
0.0000004031748589
 40
0.0015105295311906
 40
0.0015105295311906
 40
0.0015105295311906
 40
0.0015105295311906
 10
2.439947639402044
 20
0.1364477786737949
 30
0.0
 10
2.430116710767982
 20
0.1278439533811792
 30
0.0
 10
2.420298863680763
 20
0.1192363845632693
 30
0.0
 10
2.410499999999995
 20
0.1106234195244867
 30
0.0
  0
SPLINE
  5
160
330
1F
100
AcDbEntity
  8
0
  6
Continuous
 62
     7
370
    25
100
AcDbSpline
210
0.0
220
0.0
230
1.0
 70
     8
 71
     3
 72
     8
 73
     4
 74
     0
 42
0.00000001
 43
0.00000001
 40
0.0000004031748597
 40
0.0000004031748597
 40
0.0000004031748597
 40
0.0000004031748597
 40
0.0015105295311916
 40
0.0015105295311916
 40
0.0015105295311916
 40
0.0015105295311916
 10
2.839947639402063
 20
0.1364477786737943
 30
0.0
 10
2.830116710768008
 20
0.1278439533811751
 30
0.0
 10
2.820298863680792
 20
0.1192363845632628
 30
0.0
 10
2.810499999999996
 20
0.1106234195244864
 30
0.0
  0
SPLINE
  5
162
330
1F
100
AcDbEntity
  8
0
  6
Continuous
 62
     7
370
    25
100
AcDbSpline
210
0.0
220
0.0
230
1.0
 70
     8
 71
     3
 72
     8
 73
     4
 74
     0
 42
0.00000001
 43
0.00000001
 40
0.0000004031748593
 40
0.0000004031748593
 40
0.0000004031748593
 40
0.0000004031748593
 40
0.0015105295311911
 40
0.0015105295311911
 40
0.0015105295311911
 40
0.0015105295311911
 10
3.139947639402078
 20
0.1364477786737895
 30
0.0
 10
3.130116710768022
 20
0.1278439533811704
 30
0.0
 10
3.120298863680784
 20
0.1192363845632647
 30
0.0
 10
3.110499999999988
 20
0.1106234195244884
 30
0.0
  0
SPLINE
  5
164
330
1F
100
AcDbEntity
  8
0
  6
Continuous
 62
     7
370
    25
100
AcDbSpline
210
0.0
220
0.0
230
1.0
 70
     8
 71
     3
 72
     8
 73
     4
 74
     0
 42
0.00000001
 43
0.00000001
 40
0.0000004031748597
 40
0.0000004031748597
 40
0.0000004031748597
 40
0.0000004031748597
 40
0.0015105295311916
 40
0.0015105295311916
 40
0.0015105295311916
 40
0.0015105295311916
 10
2.639947639402064
 20
0.1364477786737943
 30
0.0
 10
2.630116710768008
 20
0.127843953381175
 30
0.0
 10
2.620298863680792
 20
0.1192363845632627
 30
0.0
 10
2.610499999999996
 20
0.1106234195244862
 30
0.0
  0
SPLINE
  5
166
330
1F
100
AcDbEntity
  8
0
  6
Continuous
 62
     7
370
    25
100
AcDbSpline
210
0.0
220
0.0
230
1.0
 70
     8
 71
     3
 72
     8
 73
     4
 74
     0
 42
0.00000001
 43
0.00000001
 40
0.0000004031748593
 40
0.0000004031748593
 40
0.0000004031748593
 40
0.0000004031748593
 40
0.001510529531191
 40
0.001510529531191
 40
0.001510529531191
 40
0.001510529531191
 10
2.93994763940207
 20
0.1364477786737895
 30
0.0
 10
2.930116710768015
 20
0.1278439533811709
 30
0.0
 10
2.920298863680785
 20
0.1192363845632636
 30
0.0
 10
2.910499999999991
 20
0.1106234195244878
 30
0.0
  0
SPLINE
  5
168
330
1F
100
AcDbEntity
  8
0
  6
Continuous
 62
     7
370
    25
100
AcDbSpline
210
0.0
220
0.0
230
1.0
 70
     8
 71
     3
 72
     8
 73
     4
 74
     0
 42
0.00000001
 43
0.00000001
 40
0.0000004031748593
 40
0.0000004031748593
 40
0.0000004031748593
 40
0.0000004031748593
 40
0.0015105295311911
 40
0.0015105295311911
 40
0.0015105295311911
 40
0.0015105295311911
 10
3.339947639402077
 20
0.1364477786737895
 30
0.0
 10
3.330116710768022
 20
0.1278439533811705
 30
0.0
 10
3.320298863680783
 20
0.1192363845632648
 30
0.0
 10
3.310499999999988
 20
0.1106234195244886
 30
0.0
  0
SPLINE
  5
16A
330
1F
100
AcDbEntity
  8
0
  6
Continuous
 62
     7
370
    25
100
AcDbSpline
210
0.0
220
0.0
230
1.0
 70
     8
 71
     3
 72
     8
 73
     4
 74
     0
 42
0.00000001
 43
0.00000001
 40
0.0000004031748591
 40
0.0000004031748591
 40
0.0000004031748591
 40
0.0000004031748591
 40
0.0015105295311907
 40
0.0015105295311907
 40
0.0015105295311907
 40
0.0015105295311907
 10
2.739947639402059
 20
0.1364477786737885
 30
0.0
 10
2.73011671076801
 20
0.1278439533811697
 30
0.0
 10
2.720298863680794
 20
0.1192363845632597
 30
0.0
 10
2.710499999999988
 20
0.1106234195244885
 30
0.0
  0
SPLINE
  5
16C
330
1F
100
AcDbEntity
  8
0
  6
Continuous
 62
     7
370
    25
100
AcDbSpline
210
0.0
220
0.0
230
1.0
 70
     8
 71
     3
 72
     8
 73
     4
 74
     0
 42
0.00000001
 43
0.00000001
 40
0.0000004031748591
 40
0.0000004031748591
 40
0.0000004031748591
 40
0.0000004031748591
 40
0.0015105295311907
 40
0.0015105295311907
 40
0.0015105295311907
 40
0.0015105295311907
 10
2.53994763940206
 20
0.1364477786737885
 30
0.0
 10
2.530116710768011
 20
0.1278439533811697
 30
0.0
 10
2.520298863680795
 20
0.1192363845632595
 30
0.0
 10
2.510499999999989
 20
0.1106234195244882
 30
0.0
  0
SPLINE
  5
16E
330
1F
100
AcDbEntity
  8
0
  6
Continuous
 62
     7
370
    25
100
AcDbSpline
210
0.0
220
0.0
230
1.0
 70
     8
 71
     3
 72
     8
 73
     4
 74
     0
 42
0.00000001
 43
0.00000001
 40
0.0000004031748591
 40
0.0000004031748591
 40
0.0000004031748591
 40
0.0000004031748591
 40
0.0015105295311907
 40
0.0015105295311907
 40
0.0015105295311907
 40
0.0015105295311907
 10
3.239947639402065
 20
0.1364477786737862
 30
0.0
 10
3.230116710768016
 20
0.1278439533811676
 30
0.0
 10
3.220298863680793
 20
0.1192363845632599
 30
0.0
 10
3.210499999999987
 20
0.1106234195244888
 30
0.0
  0
SPLINE
  5
170
330
1F
100
AcDbEntity
  8
0
  6
Continuous
 62
     7
370
    25
100
AcDbSpline
210
0.0
220
0.0
230
1.0
 70
     8
 71
     3
 72
     8
 73
     4
 74
     0
 42
0.00000001
 43
0.00000001
 40
0.0000004031748591
 40
0.0000004031748591
 40
0.0000004031748591
 40
0.0000004031748591
 40
0.0015105295311907
 40
0.0015105295311907
 40
0.0015105295311907
 40
0.0015105295311907
 10
3.039947639402066
 20
0.1364477786737862
 30
0.0
 10
3.030116710768017
 20
0.1278439533811676
 30
0.0
 10
3.020298863680793
 20
0.1192363845632597
 30
0.0
 10
3.010499999999988
 20
0.1106234195244885
 30
0.0
  0
SPLINE
  5
172
330
1F
100
AcDbEntity
  8
0
  6
Continuous
 62
     7
370
    25
100
AcDbSpline
210
0.0
220
0.0
230
1.0
 70
     8
 71
     3
 72
     8
 73
     4
 74
     0
 42
0.00000001
 43
0.00000001
 40
0.0000004027994181
 40
0.0000004027994181
 40
0.0000004027994181
 40
0.0000004027994181
 40
0.0015054402801864
 40
0.0015054402801864
 40
0.0015054402801864
 40
0.0015054402801864
 10
2.398
 20
-0.0765167621575257
 30
0.0
 10
2.38819305858105
 20
-0.0850889810792171
 30
0.0
 10
2.378375266086485
 20
-0.0936580967858619
 30
0.0
 10
2.36855236059795
 20
-0.1022257448984372
 30
0.0
  0
SPLINE
  5
174
330
1F
100
AcDbEntity
  8
0
  6
Continuous
 62
     7
370
    25
100
AcDbSpline
210
0.0
220
0.0
230
1.0
 70
     8
 71
     3
 72
     8
 73
     4
 74
     0
 42
0.00000001
 43
0.00000001
 40
0.0000004027994181
 40
0.0000004027994181
 40
0.0000004027994181
 40
0.0000004027994181
 40
0.0015054402801864
 40
0.0015054402801864
 40
0.0015054402801864
 40
0.0015054402801864
 10
3.398
 20
-0.0765167621575258
 30
0.0
 10
3.38819305858105
 20
-0.0850889810792172
 30
0.0
 10
3.378375266086485
 20
-0.0936580967858619
 30
0.0
 10
3.36855236059795
 20
-0.1022257448984372
 30
0.0
  0
SPLINE
  5
176
330
1F
100
AcDbEntity
  8
0
  6
Continuous
 62
     7
370
    25
100
AcDbSpline
210
0.0
220
0.0
230
1.0
 70
     8
 71
     3
 72
     8
 73
     4
 74
     0
 42
0.00000001
 43
0.00000001
 40
0.0000004027994181
 40
0.0000004027994181
 40
0.0000004027994181
 40
0.0000004027994181
 40
0.0015054402801864
 40
0.0015054402801864
 40
0.0015054402801864
 40
0.0015054402801864
 10
2.998
 20
-0.0765167621575257
 30
0.0
 10
2.98819305858105
 20
-0.0850889810792172
 30
0.0
 10
2.978375266086485
 20
-0.0936580967858619
 30
0.0
 10
2.96855236059795
 20
-0.1022257448984372
 30
0.0
  0
SPLINE
  5
178
330
1F
100
AcDbEntity
  8
0
  6
Continuous
 62
     7
370
    25
100
AcDbSpline
210
0.0
220
0.0
230
1.0
 70
     8
 71
     3
 72
     8
 73
     4
 74
     0
 42
0.00000001
 43
0.00000001
 40
0.0000004027994181
 40
0.0000004027994181
 40
0.0000004027994181
 40
0.0000004027994181
 40
0.0015054402801864
 40
0.0015054402801864
 40
0.0015054402801864
 40
0.0015054402801864
 10
2.698
 20
-0.0765167621575257
 30
0.0
 10
2.688193058581049
 20
-0.0850889810792172
 30
0.0
 10
2.678375266086485
 20
-0.0936580967858619
 30
0.0
 10
2.66855236059795
 20
-0.1022257448984372
 30
0.0
  0
SPLINE
  5
17A
330
1F
100
AcDbEntity
  8
0
  6
Continuous
 62
     7
370
    25
100
AcDbSpline
210
0.0
220
0.0
230
1.0
 70
     8
 71
     3
 72
     8
 73
     4
 74
     0
 42
0.00000001
 43
0.00000001
 40
0.0000004027994181
 40
0.0000004027994181
 40
0.0000004027994181
 40
0.0000004027994181
 40
0.0015054402801864
 40
0.0015054402801864
 40
0.0015054402801864
 40
0.0015054402801864
 10
2.598
 20
-0.0765167621575257
 30
0.0
 10
2.58819305858105
 20
-0.0850889810792172
 30
0.0
 10
2.578375266086485
 20
-0.0936580967858619
 30
0.0
 10
2.56855236059795
 20
-0.1022257448984372
 30
0.0
  0
SPLINE
  5
17C
330
1F
100
AcDbEntity
  8
0
  6
Continuous
 62
     7
370
    25
100
AcDbSpline
210
0.0
220
0.0
230
1.0
 70
     8
 71
     3
 72
     8
 73
     4
 74
     0
 42
0.00000001
 43
0.00000001
 40
0.0000004027994181
 40
0.0000004027994181
 40
0.0000004027994181
 40
0.0000004027994181
 40
0.0015054402801864
 40
0.0015054402801864
 40
0.0015054402801864
 40
0.0015054402801864
 10
2.498
 20
-0.0765167621575257
 30
0.0
 10
2.48819305858105
 20
-0.0850889810792171
 30
0.0
 10
2.478375266086485
 20
-0.0936580967858619
 30
0.0
 10
2.46855236059795
 20
-0.1022257448984372
 30
0.0
  0
SPLINE
  5
17E
330
1F
100
AcDbEntity
  8
0
  6
Continuous
 62
     7
370
    25
100
AcDbSpline
210
0.0
220
0.0
230
1.0
 70
     8
 71
     3
 72
     8
 73
     4
 74
     0
 42
0.00000001
 43
0.00000001
 40
0.0000004027994181
 40
0.0000004027994181
 40
0.0000004027994181
 40
0.0000004027994181
 40
0.0015054402801864
 40
0.0015054402801864
 40
0.0015054402801864
 40
0.0015054402801864
 10
3.298
 20
-0.0765167621575258
 30
0.0
 10
3.28819305858105
 20
-0.0850889810792172
 30
0.0
 10
3.278375266086485
 20
-0.0936580967858619
 30
0.0
 10
3.26855236059795
 20
-0.1022257448984372
 30
0.0
  0
SPLINE
  5
180
330
1F
100
AcDbEntity
  8
0
  6
Continuous
 62
     7
370
    25
100
AcDbSpline
210
0.0
220
0.0
230
1.0
 70
     8
 71
     3
 72
     8
 73
     4
 74
     0
 42
0.00000001
 43
0.00000001
 40
0.0000004027994181
 40
0.0000004027994181
 40
0.0000004027994181
 40
0.0000004027994181
 40
0.0015054402801864
 40
0.0015054402801864
 40
0.0015054402801864
 40
0.0015054402801864
 10
3.098
 20
-0.0765167621575257
 30
0.0
 10
3.08819305858105
 20
-0.0850889810792172
 30
0.0
 10
3.078375266086485
 20
-0.0936580967858619
 30
0.0
 10
3.068552360597951
 20
-0.1022257448984372
 30
0.0
  0
SPLINE
  5
182
330
1F
100
AcDbEntity
  8
0
  6
Continuous
 62
     7
370
    25
100
AcDbSpline
210
0.0
220
0.0
230
1.0
 70
     8
 71
     3
 72
     8
 73
     4
 74
     0
 42
0.00000001
 43
0.00000001
 40
0.0000004027994181
 40
0.0000004027994181
 40
0.0000004027994181
 40
0.0000004027994181
 40
0.0015054402801864
 40
0.0015054402801864
 40
0.0015054402801864
 40
0.0015054402801864
 10
2.798
 20
-0.0765167621575257
 30
0.0
 10
2.788193058581049
 20
-0.0850889810792172
 30
0.0
 10
2.778375266086485
 20
-0.0936580967858619
 30
0.0
 10
2.76855236059795
 20
-0.1022257448984372
 30
0.0
  0
SPLINE
  5
184
330
1F
100
AcDbEntity
  8
0
  6
Continuous
 62
     7
370
    25
100
AcDbSpline
210
0.0
220
0.0
230
1.0
 70
     8
 71
     3
 72
     8
 73
     4
 74
     0
 42
0.00000001
 43
0.00000001
 40
0.0000004027994181
 40
0.0000004027994181
 40
0.0000004027994181
 40
0.0000004027994181
 40
0.0015054402801864
 40
0.0015054402801864
 40
0.0015054402801864
 40
0.0015054402801864
 10
3.198
 20
-0.0765167621575257
 30
0.0
 10
3.18819305858105
 20
-0.0850889810792172
 30
0.0
 10
3.178375266086485
 20
-0.0936580967858619
 30
0.0
 10
3.168552360597951
 20
-0.1022257448984372
 30
0.0
  0
SPLINE
  5
186
330
1F
100
AcDbEntity
  8
0
  6
Continuous
 62
     7
370
    25
100
AcDbSpline
210
0.0
220
0.0
230
1.0
 70
     8
 71
     3
 72
     8
 73
     4
 74
     0
 42
0.00000001
 43
0.00000001
 40
0.0000004027994181
 40
0.0000004027994181
 40
0.0000004027994181
 40
0.0000004027994181
 40
0.0015054402801864
 40
0.0015054402801864
 40
0.0015054402801864
 40
0.0015054402801864
 10
2.898
 20
-0.0765167621575257
 30
0.0
 10
2.88819305858105
 20
-0.0850889810792172
 30
0.0
 10
2.878375266086485
 20
-0.0936580967858619
 30
0.0
 10
2.86855236059795
 20
-0.1022257448984372
 30
0.0
  0
SPLINE
  5
188
330
1F
100
AcDbEntity
  8
0
  6
Continuous
 62
     7
370
    25
100
AcDbSpline
210
0.0
220
0.0
230
1.0
 70
     8
 71
     3
 72
     8
 73
     4
 74
     0
 42
0.00000001
 43
0.00000001
 40
0.0000004021446289
 40
0.0000004021446289
 40
0.0000004021446289
 40
0.0000004021446289
 40
0.0015054396253972
 40
0.0015054396253972
 40
0.0015054396253972
 40
0.0015054396253972
 10
3.339947639402051
 20
-0.1022257448984371
 30
0.0
 10
3.330124733913516
 20
-0.0936580967858618
 30
0.0
 10
3.320306941418951
 20
-0.0850889810792171
 30
0.0
 10
3.3105
 20
-0.0765167621575257
 30
0.0
  0
SPLINE
  5
18A
330
1F
100
AcDbEntity
  8
0
  6
Continuous
 62
     7
370
    25
100
AcDbSpline
210
0.0
220
0.0
230
1.0
 70
     8
 71
     3
 72
     8
 73
     4
 74
     0
 42
0.00000001
 43
0.00000001
 40
0.0000004021446289
 40
0.0000004021446289
 40
0.0000004021446289
 40
0.0000004021446289
 40
0.0015054396253972
 40
0.0015054396253972
 40
0.0015054396253972
 40
0.0015054396253972
 10
3.239947639402051
 20
-0.102225744898437
 30
0.0
 10
3.230124733913517
 20
-0.0936580967858618
 30
0.0
 10
3.220306941418951
 20
-0.0850889810792171
 30
0.0
 10
3.2105
 20
-0.0765167621575257
 30
0.0
  0
SPLINE
  5
18C
330
1F
100
AcDbEntity
  8
0
  6
Continuous
 62
     7
370
    25
100
AcDbSpline
210
0.0
220
0.0
230
1.0
 70
     8
 71
     3
 72
     8
 73
     4
 74
     0
 42
0.00000001
 43
0.00000001
 40
0.0000004021446289
 40
0.0000004021446289
 40
0.0000004021446289
 40
0.0000004021446289
 40
0.0015054396253972
 40
0.0015054396253972
 40
0.0015054396253972
 40
0.0015054396253972
 10
3.039947639402051
 20
-0.102225744898437
 30
0.0
 10
3.030124733913516
 20
-0.0936580967858618
 30
0.0
 10
3.020306941418951
 20
-0.0850889810792171
 30
0.0
 10
3.0105
 20
-0.0765167621575257
 30
0.0
  0
SPLINE
  5
18E
330
1F
100
AcDbEntity
  8
0
  6
Continuous
 62
     7
370
    25
100
AcDbSpline
210
0.0
220
0.0
230
1.0
 70
     8
 71
     3
 72
     8
 73
     4
 74
     0
 42
0.00000001
 43
0.00000001
 40
0.0000004021446289
 40
0.0000004021446289
 40
0.0000004021446289
 40
0.0000004021446289
 40
0.0015054396253972
 40
0.0015054396253972
 40
0.0015054396253972
 40
0.0015054396253972
 10
2.739947639402051
 20
-0.102225744898437
 30
0.0
 10
2.730124733913516
 20
-0.0936580967858618
 30
0.0
 10
2.720306941418951
 20
-0.0850889810792171
 30
0.0
 10
2.7105
 20
-0.0765167621575257
 30
0.0
  0
SPLINE
  5
190
330
1F
100
AcDbEntity
  8
0
  6
Continuous
 62
     7
370
    25
100
AcDbSpline
210
0.0
220
0.0
230
1.0
 70
     8
 71
     3
 72
     8
 73
     4
 74
     0
 42
0.00000001
 43
0.00000001
 40
0.0000004021446289
 40
0.0000004021446289
 40
0.0000004021446289
 40
0.0000004021446289
 40
0.0015054396253972
 40
0.0015054396253972
 40
0.0015054396253972
 40
0.0015054396253972
 10
3.139947639402052
 20
-0.102225744898437
 30
0.0
 10
3.130124733913517
 20
-0.0936580967858618
 30
0.0
 10
3.120306941418951
 20
-0.0850889810792171
 30
0.0
 10
3.1105
 20
-0.0765167621575257
 30
0.0
  0
SPLINE
  5
192
330
1F
100
AcDbEntity
  8
0
  6
Continuous
 62
     7
370
    25
100
AcDbSpline
210
0.0
220
0.0
230
1.0
 70
     8
 71
     3
 72
     8
 73
     4
 74
     0
 42
0.00000001
 43
0.00000001
 40
0.0000004021446289
 40
0.0000004021446289
 40
0.0000004021446289
 40
0.0000004021446289
 40
0.0015054396253972
 40
0.0015054396253972
 40
0.0015054396253972
 40
0.0015054396253972
 10
2.939947639402051
 20
-0.102225744898437
 30
0.0
 10
2.930124733913516
 20
-0.0936580967858618
 30
0.0
 10
2.920306941418951
 20
-0.0850889810792171
 30
0.0
 10
2.9105
 20
-0.0765167621575257
 30
0.0
  0
SPLINE
  5
194
330
1F
100
AcDbEntity
  8
0
  6
Continuous
 62
     7
370
    25
100
AcDbSpline
210
0.0
220
0.0
230
1.0
 70
     8
 71
     3
 72
     8
 73
     4
 74
     0
 42
0.00000001
 43
0.00000001
 40
0.0000004021446289
 40
0.0000004021446289
 40
0.0000004021446289
 40
0.0000004021446289
 40
0.0015054396253972
 40
0.0015054396253972
 40
0.0015054396253972
 40
0.0015054396253972
 10
2.539947639402051
 20
-0.102225744898437
 30
0.0
 10
2.530124733913516
 20
-0.0936580967858618
 30
0.0
 10
2.520306941418951
 20
-0.0850889810792171
 30
0.0
 10
2.5105
 20
-0.0765167621575257
 30
0.0
  0
SPLINE
  5
196
330
1F
100
AcDbEntity
  8
0
  6
Continuous
 62
     7
370
    25
100
AcDbSpline
210
0.0
220
0.0
230
1.0
 70
     8
 71
     3
 72
     8
 73
     4
 74
     0
 42
0.00000001
 43
0.00000001
 40
0.0000004021446289
 40
0.0000004021446289
 40
0.0000004021446289
 40
0.0000004021446289
 40
0.0015054396253972
 40
0.0015054396253972
 40
0.0015054396253972
 40
0.0015054396253972
 10
2.439947639402051
 20
-0.1022257448984369
 30
0.0
 10
2.430124733913516
 20
-0.0936580967858617
 30
0.0
 10
2.420306941418951
 20
-0.085088981079217
 30
0.0
 10
2.4105
 20
-0.0765167621575257
 30
0.0
  0
SPLINE
  5
198
330
1F
100
AcDbEntity
  8
0
  6
Continuous
 62
     7
370
    25
100
AcDbSpline
210
0.0
220
0.0
230
1.0
 70
     8
 71
     3
 72
     8
 73
     4
 74
     0
 42
0.00000001
 43
0.00000001
 40
0.0000004021446289
 40
0.0000004021446289
 40
0.0000004021446289
 40
0.0000004021446289
 40
0.0015054396253972
 40
0.0015054396253972
 40
0.0015054396253972
 40
0.0015054396253972
 10
2.839947639402051
 20
-0.102225744898437
 30
0.0
 10
2.830124733913516
 20
-0.0936580967858618
 30
0.0
 10
2.820306941418951
 20
-0.0850889810792171
 30
0.0
 10
2.8105
 20
-0.0765167621575257
 30
0.0
  0
SPLINE
  5
19A
330
1F
100
AcDbEntity
  8
0
  6
Continuous
 62
     7
370
    25
100
AcDbSpline
210
0.0
220
0.0
230
1.0
 70
     8
 71
     3
 72
     8
 73
     4
 74
     0
 42
0.00000001
 43
0.00000001
 40
0.0000004021446289
 40
0.0000004021446289
 40
0.0000004021446289
 40
0.0000004021446289
 40
0.0015054396253972
 40
0.0015054396253972
 40
0.0015054396253972
 40
0.0015054396253972
 10
2.639947639402051
 20
-0.102225744898437
 30
0.0
 10
2.630124733913516
 20
-0.0936580967858618
 30
0.0
 10
2.620306941418951
 20
-0.0850889810792171
 30
0.0
 10
2.6105
 20
-0.0765167621575257
 30
0.0
  0
SPLINE
  5
19D
330
1F
100
AcDbEntity
  8
0
  6
Continuous
 62
     7
370
    25
100
AcDbSpline
210
0.0
220
0.0
230
1.0
 70
     8
 71
     3
 72
    14
 73
    10
 74
     0
 42
0.00000001
 43
0.00000001
 40
0.0
 40
0.0
 40
0.0
 40
0.0
 40
0.25
 40
0.25
 40
0.5
 40
0.5
 40
0.75
 40
0.75
 40
1.0
 40
1.0
 40
1.0
 40
1.0
 10
3.039947639402051
 20
-0.2266018227906823
 30
0.0
 10
3.041274305116127
 20
-0.2292856988836643
 30
0.0
 10
3.043219826246477
 20
-0.2316719657509264
 30
0.0
 10
3.048116175502325
 20
-0.2351095160248034
 30
0.0
 10
3.051121310431802
 20
-0.2361479546398221
 30
0.0
 10
3.057290772882311
 20
-0.236167088277323
 30
0.0
 10
3.060286312315343
 20
-0.2351654931282849
 30
0.0
 10
3.065290172773626
 20
-0.2316771860819489
 30
0.0
 10
3.067223317080126
 20
-0.2292905092368429
 30
0.0
 10
3.06855236059795
 20
-0.2266018227906825
 30
0.0
  0
SPLINE
  5
1A0
330
1F
100
AcDbEntity
  8
0
  6
Continuous
 62
     7
370
    25
100
AcDbSpline
210
0.0
220
0.0
230
1.0
 70
     8
 71
     3
 72
    14
 73
    10
 74
     0
 42
0.00000001
 43
0.00000001
 40
0.0
 40
0.0
 40
0.0
 40
0.0
 40
0.25
 40
0.25
 40
0.5
 40
0.5
 40
0.75
 40
0.75
 40
1.0
 40
1.0
 40
1.0
 40
1.0
 10
3.239947639402051
 20
-0.2266018227906823
 30
0.0
 10
3.241274305116126
 20
-0.2292856988836642
 30
0.0
 10
3.243219826246479
 20
-0.2316719657509279
 30
0.0
 10
3.248116175502326
 20
-0.2351095160248038
 30
0.0
 10
3.251121310431802
 20
-0.236147954639822
 30
0.0
 10
3.25729077288231
 20
-0.2361670882773232
 30
0.0
 10
3.260286312315344
 20
-0.2351654931282832
 30
0.0
 10
3.265290172773627
 20
-0.2316771860819487
 30
0.0
 10
3.267223317080127
 20
-0.2292905092368428
 30
0.0
 10
3.26855236059795
 20
-0.2266018227906825
 30
0.0
  0
SPLINE
  5
1A3
330
1F
100
AcDbEntity
  8
0
  6
Continuous
 62
     7
370
    25
100
AcDbSpline
210
0.0
220
0.0
230
1.0
 70
     8
 71
     3
 72
    14
 73
    10
 74
     0
 42
0.00000001
 43
0.00000001
 40
0.0
 40
0.0
 40
0.0
 40
0.0
 40
0.25
 40
0.25
 40
0.5
 40
0.5
 40
0.75
 40
0.75
 40
1.0
 40
1.0
 40
1.0
 40
1.0
 10
2.739947639402051
 20
-0.2266018227906821
 30
0.0
 10
2.741274305116125
 20
-0.2292856988836647
 30
0.0
 10
2.743219826246477
 20
-0.231671965750927
 30
0.0
 10
2.748116175502326
 20
-0.2351095160248043
 30
0.0
 10
2.751121310431804
 20
-0.2361479546398223
 30
0.0
 10
2.757290772882311
 20
-0.2361670882773227
 30
0.0
 10
2.760286312315343
 20
-0.2351654931282845
 30
0.0
 10
2.765290172773628
 20
-0.2316771860819488
 30
0.0
 10
2.767223317080127
 20
-0.2292905092368427
 30
0.0
 10
2.76855236059795
 20
-0.2266018227906822
 30
0.0
  0
SPLINE
  5
1A6
330
1F
100
AcDbEntity
  8
0
  6
Continuous
 62
     7
370
    25
100
AcDbSpline
210
0.0
220
0.0
230
1.0
 70
     8
 71
     3
 72
    14
 73
    10
 74
     0
 42
0.00000001
 43
0.00000001
 40
0.0
 40
0.0
 40
0.0
 40
0.0
 40
0.25
 40
0.25
 40
0.5
 40
0.5
 40
0.75
 40
0.75
 40
1.0
 40
1.0
 40
1.0
 40
1.0
 10
2.539947639402051
 20
-0.2266018227906821
 30
0.0
 10
2.541274305116126
 20
-0.2292856988836645
 30
0.0
 10
2.543219826246476
 20
-0.2316719657509271
 30
0.0
 10
2.548116175502327
 20
-0.2351095160248038
 30
0.0
 10
2.551121310431802
 20
-0.236147954639822
 30
0.0
 10
2.557290772882312
 20
-0.2361670882773231
 30
0.0
 10
2.560286312315343
 20
-0.2351654931282847
 30
0.0
 10
2.565290172773627
 20
-0.2316771860819496
 30
0.0
 10
2.567223317080126
 20
-0.2292905092368426
 30
0.0
 10
2.56855236059795
 20
-0.2266018227906821
 30
0.0
  0
SPLINE
  5
1A9
330
1F
100
AcDbEntity
  8
0
  6
Continuous
 62
     7
370
    25
100
AcDbSpline
210
0.0
220
0.0
230
1.0
 70
     8
 71
     3
 72
    14
 73
    10
 74
     0
 42
0.00000001
 43
0.00000001
 40
0.0
 40
0.0
 40
0.0
 40
0.0
 40
0.25
 40
0.25
 40
0.5
 40
0.5
 40
0.75
 40
0.75
 40
1.0
 40
1.0
 40
1.0
 40
1.0
 10
3.33994763940205
 20
-0.2266018227906821
 30
0.0
 10
3.341274305116127
 20
-0.2292856988836653
 30
0.0
 10
3.343219826246472
 20
-0.231671965750921
 30
0.0
 10
3.348116175502321
 20
-0.2351095160248016
 30
0.0
 10
3.351121310431797
 20
-0.2361479546398209
 30
0.0
 10
3.357290772882307
 20
-0.2361670882773243
 30
0.0
 10
3.360286312315341
 20
-0.2351654931282854
 30
0.0
 10
3.365290172773627
 20
-0.2316771860819497
 30
0.0
 10
3.367223317080127
 20
-0.2292905092368434
 30
0.0
 10
3.36855236059795
 20
-0.2266018227906822
 30
0.0
  0
SPLINE
  5
1AC
330
1F
100
AcDbEntity
  8
0
  6
Continuous
 62
     7
370
    25
100
AcDbSpline
210
0.0
220
0.0
230
1.0
 70
     8
 71
     3
 72
    14
 73
    10
 74
     0
 42
0.00000001
 43
0.00000001
 40
0.0
 40
0.0
 40
0.0
 40
0.0
 40
0.25
 40
0.25
 40
0.5
 40
0.5
 40
0.75
 40
0.75
 40
1.0
 40
1.0
 40
1.0
 40
1.0
 10
3.13994763940205
 20
-0.2266018227906821
 30
0.0
 10
3.141274305116125
 20
-0.2292856988836649
 30
0.0
 10
3.143219826246471
 20
-0.2316719657509221
 30
0.0
 10
3.148116175502322
 20
-0.2351095160248011
 30
0.0
 10
3.151121310431797
 20
-0.236147954639821
 30
0.0
 10
3.157290772882307
 20
-0.2361670882773241
 30
0.0
 10
3.16028631231534
 20
-0.2351654931282855
 30
0.0
 10
3.165290172773626
 20
-0.2316771860819502
 30
0.0
 10
3.167223317080127
 20
-0.2292905092368434
 30
0.0
 10
3.168552360597951
 20
-0.2266018227906822
 30
0.0
  0
SPLINE
  5
1AF
330
1F
100
AcDbEntity
  8
0
  6
Continuous
 62
     7
370
    25
100
AcDbSpline
210
0.0
220
0.0
230
1.0
 70
     8
 71
     3
 72
    14
 73
    10
 74
     0
 42
0.00000001
 43
0.00000001
 40
0.0
 40
0.0
 40
0.0
 40
0.0
 40
0.25
 40
0.25
 40
0.5
 40
0.5
 40
0.75
 40
0.75
 40
1.0
 40
1.0
 40
1.0
 40
1.0
 10
2.93994763940205
 20
-0.2266018227906821
 30
0.0
 10
2.941274305116125
 20
-0.2292856988836649
 30
0.0
 10
2.943219826246472
 20
-0.2316719657509219
 30
0.0
 10
2.94811617550232
 20
-0.2351095160248013
 30
0.0
 10
2.951121310431798
 20
-0.2361479546398211
 30
0.0
 10
2.957290772882309
 20
-0.2361670882773241
 30
0.0
 10
2.960286312315342
 20
-0.2351654931282856
 30
0.0
 10
2.965290172773626
 20
-0.2316771860819501
 30
0.0
 10
2.967223317080127
 20
-0.2292905092368434
 30
0.0
 10
2.96855236059795
 20
-0.2266018227906822
 30
0.0
  0
SPLINE
  5
1B2
330
1F
100
AcDbEntity
  8
0
  6
Continuous
 62
     7
370
    25
100
AcDbSpline
210
0.0
220
0.0
230
1.0
 70
     8
 71
     3
 72
    14
 73
    10
 74
     0
 42
0.00000001
 43
0.00000001
 40
0.0
 40
0.0
 40
0.0
 40
0.0
 40
0.25
 40
0.25
 40
0.5
 40
0.5
 40
0.75
 40
0.75
 40
1.0
 40
1.0
 40
1.0
 40
1.0
 10
2.639947639402051
 20
-0.2266018227906822
 30
0.0
 10
2.641274305116126
 20
-0.2292856988836649
 30
0.0
 10
2.643219826246472
 20
-0.2316719657509222
 30
0.0
 10
2.64811617550232
 20
-0.2351095160248026
 30
0.0
 10
2.651121310431798
 20
-0.2361479546398212
 30
0.0
 10
2.657290772882308
 20
-0.2361670882773237
 30
0.0
 10
2.660286312315341
 20
-0.2351654931282853
 30
0.0
 10
2.665290172773627
 20
-0.2316771860819497
 30
0.0
 10
2.667223317080126
 20
-0.2292905092368434
 30
0.0
 10
2.66855236059795
 20
-0.2266018227906824
 30
0.0
  0
SPLINE
  5
1B5
330
1F
100
AcDbEntity
  8
0
  6
Continuous
 62
     7
370
    25
100
AcDbSpline
210
0.0
220
0.0
230
1.0
 70
     8
 71
     3
 72
    14
 73
    10
 74
     0
 42
0.00000001
 43
0.00000001
 40
0.0
 40
0.0
 40
0.0
 40
0.0
 40
0.25
 40
0.25
 40
0.5
 40
0.5
 40
0.75
 40
0.75
 40
1.0
 40
1.0
 40
1.0
 40
1.0
 10
2.839947639402051
 20
-0.2266018227906822
 30
0.0
 10
2.841274305116126
 20
-0.229285698883665
 30
0.0
 10
2.843219826246473
 20
-0.2316719657509218
 30
0.0
 10
2.848116175502321
 20
-0.2351095160248022
 30
0.0
 10
2.851121310431798
 20
-0.2361479546398209
 30
0.0
 10
2.857290772882308
 20
-0.2361670882773239
 30
0.0
 10
2.860286312315341
 20
-0.2351654931282851
 30
0.0
 10
2.865290172773627
 20
-0.2316771860819498
 30
0.0
 10
2.867223317080126
 20
-0.2292905092368438
 30
0.0
 10
2.86855236059795
 20
-0.2266018227906825
 30
0.0
  0
SPLINE
  5
1B8
330
1F
100
AcDbEntity
  8
0
  6
Continuous
 62
     7
370
    25
100
AcDbSpline
210
0.0
220
0.0
230
1.0
 70
     8
 71
     3
 72
    14
 73
    10
 74
     0
 42
0.00000001
 43
0.00000001
 40
0.0
 40
0.0
 40
0.0
 40
0.0
 40
0.25
 40
0.25
 40
0.5
 40
0.5
 40
0.75
 40
0.75
 40
1.0
 40
1.0
 40
1.0
 40
1.0
 10
2.439947639402051
 20
-0.2266018227906822
 30
0.0
 10
2.441274305116126
 20
-0.2292856988836646
 30
0.0
 10
2.443219826246474
 20
-0.2316719657509244
 30
0.0
 10
2.448116175502323
 20
-0.2351095160248027
 30
0.0
 10
2.451121310431799
 20
-0.2361479546398214
 30
0.0
 10
2.457290772882309
 20
-0.2361670882773236
 30
0.0
 10
2.460286312315343
 20
-0.2351654931282854
 30
0.0
 10
2.465290172773627
 20
-0.2316771860819491
 30
0.0
 10
2.467223317080125
 20
-0.2292905092368431
 30
0.0
 10
2.46855236059795
 20
-0.2266018227906824
 30
0.0
  0
SPLINE
  5
1BA
330
1F
100
AcDbEntity
  8
0
  6
Continuous
 62
     7
370
    25
100
AcDbSpline
210
0.0
220
0.0
230
1.0
 70
     8
 71
     3
 72
    10
 73
     6
 74
     0
 42
0.00000001
 43
0.00000001
 40
0.0
 40
0.0
 40
0.0
 40
0.0
 40
0.5
 40
0.5
 40
1.0
 40
1.0
 40
1.0
 40
1.0
 10
2.36855236059795
 20
-0.2264114393941256
 30
0.0
 10
2.367224162839269
 20
-0.2290865712638701
 30
0.0
 10
2.365268748604286
 20
-0.2314649524086621
 30
0.0
 10
2.360343854637103
 20
-0.2348484864558316
 30
0.0
 10
2.357320502546182
 20
-0.2358343470984341
 30
0.0
 10
2.35425
 20
-0.2357836562402842
 30
0.0
  0
SPLINE
  5
1BD
330
1F
100
AcDbEntity
  8
0
  6
Continuous
 62
     7
370
    25
100
AcDbSpline
210
0.0
220
0.0
230
1.0
 70
     8
 71
     3
 72
     8
 73
     4
 74
     0
 42
0.00000001
 43
0.00000001
 40
0.0
 40
0.0
 40
0.0
 40
0.0
 40
1.0
 40
1.0
 40
1.0
 40
1.0
 10
2.668552360597964
 20
-0.2266018227906888
 30
0.0
 10
2.678943131956922
 20
-0.2055834373339557
 30
0.0
 10
2.688932367585512
 20
-0.1843921291350531
 30
0.0
 10
2.698
 20
-0.1628039293448887
 30
0.0
  0
SPLINE
  5
1BF
330
1F
100
AcDbEntity
  8
0
  6
Continuous
 62
     7
370
    25
100
AcDbSpline
210
0.0
220
0.0
230
1.0
 70
     8
 71
     3
 72
     8
 73
     4
 74
     0
 42
0.00000001
 43
0.00000001
 40
0.0
 40
0.0
 40
0.0
 40
0.0
 40
1.0
 40
1.0
 40
1.0
 40
1.0
 10
3.168552360597958
 20
-0.2266018227906852
 30
0.0
 10
3.178943131956915
 20
-0.2055834373339538
 30
0.0
 10
3.188932367585501
 20
-0.1843921291350519
 30
0.0
 10
3.197999999999989
 20
-0.162803929344889
 30
0.0
  0
SPLINE
  5
1C1
330
1F
100
AcDbEntity
  8
0
  6
Continuous
 62
     7
370
    25
100
AcDbSpline
210
0.0
220
0.0
230
1.0
 70
     8
 71
     3
 72
     8
 73
     4
 74
     0
 42
0.00000001
 43
0.00000001
 40
0.0
 40
0.0
 40
0.0
 40
0.0
 40
1.0
 40
1.0
 40
1.0
 40
1.0
 10
3.268552360597965
 20
-0.2266018227906885
 30
0.0
 10
3.278943131956923
 20
-0.2055834373339546
 30
0.0
 10
3.288932367585504
 20
-0.1843921291350475
 30
0.0
 10
3.297999999999992
 20
-0.1628039293448823
 30
0.0
  0
SPLINE
  5
1C3
330
1F
100
AcDbEntity
  8
0
  6
Continuous
 62
     7
370
    25
100
AcDbSpline
210
0.0
220
0.0
230
1.0
 70
     8
 71
     3
 72
     8
 73
     4
 74
     0
 42
0.00000001
 43
0.00000001
 40
0.0
 40
0.0
 40
0.0
 40
0.0
 40
1.0
 40
1.0
 40
1.0
 40
1.0
 10
3.368552360597965
 20
-0.2266018227906883
 30
0.0
 10
3.378943131956923
 20
-0.2055834373339546
 30
0.0
 10
3.388932367585504
 20
-0.1843921291350476
 30
0.0
 10
3.397999999999993
 20
-0.1628039293448826
 30
0.0
  0
SPLINE
  5
1C5
330
1F
100
AcDbEntity
  8
0
  6
Continuous
 62
     7
370
    25
100
AcDbSpline
210
0.0
220
0.0
230
1.0
 70
     8
 71
     3
 72
     8
 73
     4
 74
     0
 42
0.00000001
 43
0.00000001
 40
0.0
 40
0.0
 40
0.0
 40
0.0
 40
1.0
 40
1.0
 40
1.0
 40
1.0
 10
2.868552360597975
 20
-0.2266018227906931
 30
0.0
 10
2.878943131956918
 20
-0.2055834373339549
 30
0.0
 10
2.888932367585499
 20
-0.1843921291350503
 30
0.0
 10
2.897999999999992
 20
-0.1628039293448893
 30
0.0
  0
SPLINE
  5
1C7
330
1F
100
AcDbEntity
  8
0
  6
Continuous
 62
     7
370
    25
100
AcDbSpline
210
0.0
220
0.0
230
1.0
 70
     8
 71
     3
 72
     8
 73
     4
 74
     0
 42
0.00000001
 43
0.00000001
 40
0.0
 40
0.0
 40
0.0
 40
0.0
 40
1.0
 40
1.0
 40
1.0
 40
1.0
 10
2.568552360597966
 20
-0.2266018227906884
 30
0.0
 10
2.578943131956923
 20
-0.2055834373339555
 30
0.0
 10
2.588932367585512
 20
-0.184392129135053
 30
0.0
 10
2.598000000000001
 20
-0.1628039293448887
 30
0.0
  0
SPLINE
  5
1C9
330
1F
100
AcDbEntity
  8
0
  6
Continuous
 62
     7
370
    25
100
AcDbSpline
210
0.0
220
0.0
230
1.0
 70
     8
 71
     3
 72
     8
 73
     4
 74
     0
 42
0.00000001
 43
0.00000001
 40
0.0
 40
0.0
 40
0.0
 40
0.0
 40
1.0
 40
1.0
 40
1.0
 40
1.0
 10
2.768552360597966
 20
-0.2266018227906884
 30
0.0
 10
2.778943131956923
 20
-0.2055834373339557
 30
0.0
 10
2.788932367585504
 20
-0.18439212913505
 30
0.0
 10
2.797999999999992
 20
-0.1628039293448859
 30
0.0
  0
SPLINE
  5
1CA
330
1F
100
AcDbEntity
  8
0
  6
Continuous
 62
     7
370
    25
100
AcDbSpline
210
0.0
220
0.0
230
1.0
 70
     8
 71
     3
 72
     8
 73
     4
 74
     0
 42
0.00000001
 43
0.00000001
 40
0.0
 40
0.0
 40
0.0
 40
0.0
 40
1.0
 40
1.0
 40
1.0
 40
1.0
 10
2.397999999999974
 20
-0.1628025498704648
 30
0.0
 10
2.38896296742309
 20
-0.1843057389773485
 30
0.0
 10
2.378971876444598
 20
-0.2054278248062218
 30
0.0
 10
2.368552360597963
 20
-0.2264114393941313
 30
0.0
  0
SPLINE
  5
1CD
330
1F
100
AcDbEntity
  8
0
  6
Continuous
 62
     7
370
    25
100
AcDbSpline
210
0.0
220
0.0
230
1.0
 70
     8
 71
     3
 72
     8
 73
     4
 74
     0
 42
0.00000001
 43
0.00000001
 40
0.0
 40
0.0
 40
0.0
 40
0.0
 40
1.0
 40
1.0
 40
1.0
 40
1.0
 10
2.468552360597947
 20
-0.2266018227906814
 30
0.0
 10
2.478943131956919
 20
-0.2055834373339555
 30
0.0
 10
2.488932367585504
 20
-0.1843921291350525
 30
0.0
 10
2.497999999999989
 20
-0.162803929344887
 30
0.0
  0
SPLINE
  5
1CF
330
1F
100
AcDbEntity
  8
0
  6
Continuous
 62
     7
370
    25
100
AcDbSpline
210
0.0
220
0.0
230
1.0
 70
     8
 71
     3
 72
     8
 73
     4
 74
     0
 42
0.00000001
 43
0.00000001
 40
0.0
 40
0.0
 40
0.0
 40
0.0
 40
1.0
 40
1.0
 40
1.0
 40
1.0
 10
3.068552360597959
 20
-0.2266018227906864
 30
0.0
 10
3.078943131956916
 20
-0.2055834373339546
 30
0.0
 10
3.088932367585486
 20
-0.1843921291350457
 30
0.0
 10
3.097999999999975
 20
-0.1628039293448826
 30
0.0
  0
SPLINE
  5
1D1
330
1F
100
AcDbEntity
  8
0
  6
Continuous
 62
     7
370
    25
100
AcDbSpline
210
0.0
220
0.0
230
1.0
 70
     8
 71
     3
 72
     8
 73
     4
 74
     0
 42
0.00000001
 43
0.00000001
 40
0.0
 40
0.0
 40
0.0
 40
0.0
 40
1.0
 40
1.0
 40
1.0
 40
1.0
 10
2.968552360597951
 20
-0.2266018227906826
 30
0.0
 10
2.978943131956908
 20
-0.2055834373339509
 30
0.0
 10
2.988932367585487
 20
-0.1843921291350456
 30
0.0
 10
2.997999999999975
 20
-0.1628039293448826
 30
0.0
  0
SPLINE
  5
1D2
330
1F
100
AcDbEntity
  8
0
  6
Continuous
 62
     7
370
    25
100
AcDbSpline
210
0.0
220
0.0
230
1.0
 70
     8
 71
     3
 72
     8
 73
     4
 74
     0
 42
0.00000001
 43
0.00000001
 40
0.0
 40
0.0
 40
0.0
 40
0.0
 40
1.0
 40
1.0
 40
1.0
 40
1.0
 10
2.410500000000003
 20
-0.1628039293448905
 30
0.0
 10
2.419567632414474
 20
-0.1843921291350599
 30
0.0
 10
2.429556868043062
 20
-0.2055834373339598
 30
0.0
 10
2.439947639402049
 20
-0.2266018227906767
 30
0.0
  0
SPLINE
  5
1D4
330
1F
100
AcDbEntity
  8
0
  6
Continuous
 62
     7
370
    25
100
AcDbSpline
210
0.0
220
0.0
230
1.0
 70
     8
 71
     3
 72
     8
 73
     4
 74
     0
 42
0.00000001
 43
0.00000001
 40
0.0
 40
0.0
 40
0.0
 40
0.0
 40
1.0
 40
1.0
 40
1.0
 40
1.0
 10
2.610499999999992
 20
-0.1628039293448954
 30
0.0
 10
2.619567632414489
 20
-0.1843921291350553
 30
0.0
 10
2.629556868043082
 20
-0.2055834373339551
 30
0.0
 10
2.63994763940206
 20
-0.2266018227906775
 30
0.0
  0
SPLINE
  5
1D6
330
1F
100
AcDbEntity
  8
0
  6
Continuous
 62
     7
370
    25
100
AcDbSpline
210
0.0
220
0.0
230
1.0
 70
     8
 71
     3
 72
     8
 73
     4
 74
     0
 42
0.00000001
 43
0.00000001
 40
0.0
 40
0.0
 40
0.0
 40
0.0
 40
1.0
 40
1.0
 40
1.0
 40
1.0
 10
2.810499999999992
 20
-0.1628039293448954
 30
0.0
 10
2.819567632414489
 20
-0.1843921291350553
 30
0.0
 10
2.82955686804309
 20
-0.2055834373339515
 30
0.0
 10
2.839947639402069
 20
-0.2266018227906738
 30
0.0
  0
SPLINE
  5
1D8
330
1F
100
AcDbEntity
  8
0
  6
Continuous
 62
     7
370
    25
100
AcDbSpline
210
0.0
220
0.0
230
1.0
 70
     8
 71
     3
 72
     8
 73
     4
 74
     0
 42
0.00000001
 43
0.00000001
 40
0.0
 40
0.0
 40
0.0
 40
0.0
 40
1.0
 40
1.0
 40
1.0
 40
1.0
 10
3.210499999999985
 20
-0.1628039293448986
 30
0.0
 10
3.219567632414494
 20
-0.1843921291350485
 30
0.0
 10
3.229556868043084
 20
-0.2055834373339436
 30
0.0
 10
3.239947639402055
 20
-0.2266018227906634
 30
0.0
  0
SPLINE
  5
1DA
330
1F
100
AcDbEntity
  8
0
  6
Continuous
 62
     7
370
    25
100
AcDbSpline
210
0.0
220
0.0
230
1.0
 70
     8
 71
     3
 72
     8
 73
     4
 74
     0
 42
0.00000001
 43
0.00000001
 40
0.0
 40
0.0
 40
0.0
 40
0.0
 40
1.0
 40
1.0
 40
1.0
 40
1.0
 10
3.01049999999999
 20
-0.1628039293448963
 30
0.0
 10
3.019567632414499
 20
-0.1843921291350463
 30
0.0
 10
3.029556868043098
 20
-0.2055834373339379
 30
0.0
 10
3.039947639402069
 20
-0.2266018227906579
 30
0.0
  0
SPLINE
  5
1DC
330
1F
100
AcDbEntity
  8
0
  6
Continuous
 62
     7
370
    25
100
AcDbSpline
210
0.0
220
0.0
230
1.0
 70
     8
 71
     3
 72
     8
 73
     4
 74
     0
 42
0.00000001
 43
0.00000001
 40
0.0
 40
0.0
 40
0.0
 40
0.0
 40
1.0
 40
1.0
 40
1.0
 40
1.0
 10
2.710499999999989
 20
-0.1628039293448969
 30
0.0
 10
2.719567632414497
 20
-0.1843921291350473
 30
0.0
 10
2.729556868043097
 20
-0.2055834373339392
 30
0.0
 10
2.739947639402069
 20
-0.2266018227906598
 30
0.0
  0
SPLINE
  5
1DE
330
1F
100
AcDbEntity
  8
0
  6
Continuous
 62
     7
370
    25
100
AcDbSpline
210
0.0
220
0.0
230
1.0
 70
     8
 71
     3
 72
     8
 73
     4
 74
     0
 42
0.00000001
 43
0.00000001
 40
0.0
 40
0.0
 40
0.0
 40
0.0
 40
1.0
 40
1.0
 40
1.0
 40
1.0
 10
2.910499999999988
 20
-0.1628039293448968
 30
0.0
 10
2.919567632414486
 20
-0.1843921291350554
 30
0.0
 10
2.92955686804308
 20
-0.2055834373339532
 30
0.0
 10
2.939947639402057
 20
-0.2266018227906743
 30
0.0
  0
SPLINE
  5
1E0
330
1F
100
AcDbEntity
  8
0
  6
Continuous
 62
     7
370
    25
100
AcDbSpline
210
0.0
220
0.0
230
1.0
 70
     8
 71
     3
 72
     8
 73
     4
 74
     0
 42
0.00000001
 43
0.00000001
 40
0.0
 40
0.0
 40
0.0
 40
0.0
 40
1.0
 40
1.0
 40
1.0
 40
1.0
 10
3.310499999999993
 20
-0.162803929344895
 30
0.0
 10
3.31956763241449
 20
-0.1843921291350543
 30
0.0
 10
3.329556868043083
 20
-0.2055834373339536
 30
0.0
 10
3.339947639402061
 20
-0.2266018227906756
 30
0.0
  0
SPLINE
  5
1E2
330
1F
100
AcDbEntity
  8
0
  6
Continuous
 62
     7
370
    25
100
AcDbSpline
210
0.0
220
0.0
230
1.0
 70
     8
 71
     3
 72
     8
 73
     4
 74
     0
 42
0.00000001
 43
0.00000001
 40
0.0
 40
0.0
 40
0.0
 40
0.0
 40
1.0
 40
1.0
 40
1.0
 40
1.0
 10
2.510499999999988
 20
-0.1628039293448969
 30
0.0
 10
2.519567632414498
 20
-0.1843921291350474
 30
0.0
 10
2.529556868043089
 20
-0.205583437333943
 30
0.0
 10
2.53994763940206
 20
-0.2266018227906636
 30
0.0
  0
SPLINE
  5
1E4
330
1F
100
AcDbEntity
  8
0
  6
Continuous
 62
     7
370
    25
100
AcDbSpline
210
0.0
220
0.0
230
1.0
 70
     8
 71
     3
 72
     8
 73
     4
 74
     0
 42
0.00000001
 43
0.00000001
 40
0.0
 40
0.0
 40
0.0
 40
0.0
 40
1.0
 40
1.0
 40
1.0
 40
1.0
 10
3.110499999999992
 20
-0.162803929344895
 30
0.0
 10
3.11956763241449
 20
-0.1843921291350546
 30
0.0
 10
3.129556868043083
 20
-0.2055834373339539
 30
0.0
 10
3.139947639402061
 20
-0.226601822790676
 30
0.0
  0
SPLINE
  5
1E9
330
1F
100
AcDbEntity
  8
0
  6
Continuous
 62
     7
370
    25
100
AcDbSpline
210
0.0
220
0.0
230
1.0
 70
     8
 71
     3
 72
     8
 73
     4
 74
     0
 42
0.00000001
 43
0.00000001
 40
0.0
 40
0.0
 40
0.0
 40
0.0
 40
1.0
 40
1.0
 40
1.0
 40
1.0
 10
2.36855236059795
 20
0.1368667610498189
 30
0.0
 10
2.365651298322703
 20
0.1393971000371983
 30
0.0
 10
2.360084087344989
 20
0.1410169510318249
 30
0.0
 10
2.35425
 20
0.1410169510318249
 30
0.0
  0
SPLINE
  5
1EA
330
1F
100
AcDbEntity
  8
0
  6
Continuous
 62
     7
370
    25
100
AcDbSpline
210
0.0
220
0.0
230
1.0
 70
     8
 71
     3
 72
     8
 73
     4
 74
     0
 42
0.00000001
 43
0.00000001
 40
0.0000004027994181
 40
0.0000004027994181
 40
0.0000004027994181
 40
0.0000004027994181
 40
0.0015054402801864
 40
0.0015054402801864
 40
0.0015054402801864
 40
0.0015054402801864
 10
2.398
 20
0.1111577783089066
 30
0.0
 10
2.38819305858105
 20
0.1197299972305984
 30
0.0
 10
2.378375266086485
 20
0.1282991129372434
 30
0.0
 10
2.36855236059795
 20
0.136866761049819
 30
0.0
  0
SPLINE
  5
1EC
330
1F
100
AcDbEntity
  8
0
  6
Continuous
 62
     7
370
    25
100
AcDbSpline
210
0.0
220
0.0
230
1.0
 70
     8
 71
     3
 72
     8
 73
     4
 74
     0
 42
0.00000001
 43
0.00000001
 40
0.0000004021446289
 40
0.0000004021446289
 40
0.0000004021446289
 40
0.0000004021446289
 40
0.0015054396253972
 40
0.0015054396253972
 40
0.0015054396253972
 40
0.0015054396253972
 10
2.439947639402051
 20
0.1368667610498188
 30
0.0
 10
2.430124733913516
 20
0.1282991129372433
 30
0.0
 10
2.420306941418951
 20
0.1197299972305983
 30
0.0
 10
2.4105
 20
0.1111577783089066
 30
0.0
  0
SPLINE
  5
1ED
330
1F
100
AcDbEntity
  8
0
  6
Continuous
 62
     7
370
    25
100
AcDbSpline
210
0.0
220
0.0
230
1.0
 70
     8
 71
     3
 72
    10
 73
     6
 74
     0
 42
0.00000001
 43
0.00000001
 40
0.0
 40
0.0
 40
0.0
 40
0.0
 40
0.5
 40
0.5
 40
1.0
 40
1.0
 40
1.0
 40
1.0
 10
2.46855236059795
 20
0.1368667610498188
 30
0.0
 10
2.465653149368355
 20
0.1393954855344634
 30
0.0
 10
2.460090779439807
 20
0.1410149700411697
 30
0.0
 10
2.448431554031912
 20
0.1410189282314857
 30
0.0
 10
2.442847286146421
 20
0.1393958653953252
 30
0.0
 10
2.43994763940205
 20
0.1368667610498193
 30
0.0
  0
SPLINE
  5
1EE
330
1F
100
AcDbEntity
  8
0
  6
Continuous
 62
     7
370
    25
100
AcDbSpline
210
0.0
220
0.0
230
1.0
 70
     8
 71
     3
 72
     8
 73
     4
 74
     0
 42
0.00000001
 43
0.00000001
 40
0.0000004027994181
 40
0.0000004027994181
 40
0.0000004027994181
 40
0.0000004027994181
 40
0.0015054402801864
 40
0.0015054402801864
 40
0.0015054402801864
 40
0.0015054402801864
 10
2.498
 20
0.1111577783089066
 30
0.0
 10
2.48819305858105
 20
0.1197299972305983
 30
0.0
 10
2.478375266086485
 20
0.1282991129372434
 30
0.0
 10
2.46855236059795
 20
0.136866761049819
 30
0.0
  0
SPLINE
  5
1F0
330
1F
100
AcDbEntity
  8
0
  6
Continuous
 62
     7
370
    25
100
AcDbSpline
210
0.0
220
0.0
230
1.0
 70
     8
 71
     3
 72
     8
 73
     4
 74
     0
 42
0.00000001
 43
0.00000001
 40
0.0000004021446289
 40
0.0000004021446289
 40
0.0000004021446289
 40
0.0000004021446289
 40
0.0015054396253972
 40
0.0015054396253972
 40
0.0015054396253972
 40
0.0015054396253972
 10
2.539947639402051
 20
0.1368667610498188
 30
0.0
 10
2.530124733913516
 20
0.1282991129372433
 30
0.0
 10
2.520306941418951
 20
0.1197299972305983
 30
0.0
 10
2.5105
 20
0.1111577783089066
 30
0.0
  0
SPLINE
  5
1F1
330
1F
100
AcDbEntity
  8
0
  6
Continuous
 62
     7
370
    25
100
AcDbSpline
210
0.0
220
0.0
230
1.0
 70
     8
 71
     3
 72
    10
 73
     6
 74
     0
 42
0.00000001
 43
0.00000001
 40
0.0
 40
0.0
 40
0.0
 40
0.0
 40
0.5
 40
0.5
 40
1.0
 40
1.0
 40
1.0
 40
1.0
 10
2.56855236059795
 20
0.1368667610498189
 30
0.0
 10
2.565653149368354
 20
0.1393954855344634
 30
0.0
 10
2.560090779439808
 20
0.1410149700411696
 30
0.0
 10
2.548431554031911
 20
0.1410189282314857
 30
0.0
 10
2.542847286146421
 20
0.1393958653953252
 30
0.0
 10
2.53994763940205
 20
0.1368667610498194
 30
0.0
  0
SPLINE
  5
1F2
330
1F
100
AcDbEntity
  8
0
  6
Continuous
 62
     7
370
    25
100
AcDbSpline
210
0.0
220
0.0
230
1.0
 70
     8
 71
     3
 72
     8
 73
     4
 74
     0
 42
0.00000001
 43
0.00000001
 40
0.0000004027994181
 40
0.0000004027994181
 40
0.0000004027994181
 40
0.0000004027994181
 40
0.0015054402801864
 40
0.0015054402801864
 40
0.0015054402801864
 40
0.0015054402801864
 10
2.598
 20
0.1111577783089066
 30
0.0
 10
2.58819305858105
 20
0.1197299972305984
 30
0.0
 10
2.578375266086485
 20
0.1282991129372434
 30
0.0
 10
2.56855236059795
 20
0.136866761049819
 30
0.0
  0
SPLINE
  5
1F4
330
1F
100
AcDbEntity
  8
0
  6
Continuous
 62
     7
370
    25
100
AcDbSpline
210
0.0
220
0.0
230
1.0
 70
     8
 71
     3
 72
     8
 73
     4
 74
     0
 42
0.00000001
 43
0.00000001
 40
0.0000004021446289
 40
0.0000004021446289
 40
0.0000004021446289
 40
0.0000004021446289
 40
0.0015054396253972
 40
0.0015054396253972
 40
0.0015054396253972
 40
0.0015054396253972
 10
2.639947639402051
 20
0.1368667610498188
 30
0.0
 10
2.630124733913516
 20
0.1282991129372433
 30
0.0
 10
2.620306941418951
 20
0.1197299972305983
 30
0.0
 10
2.6105
 20
0.1111577783089066
 30
0.0
  0
SPLINE
  5
1F5
330
1F
100
AcDbEntity
  8
0
  6
Continuous
 62
     7
370
    25
100
AcDbSpline
210
0.0
220
0.0
230
1.0
 70
     8
 71
     3
 72
    10
 73
     6
 74
     0
 42
0.00000001
 43
0.00000001
 40
0.0
 40
0.0
 40
0.0
 40
0.0
 40
0.5
 40
0.5
 40
1.0
 40
1.0
 40
1.0
 40
1.0
 10
2.66855236059795
 20
0.1368667610498189
 30
0.0
 10
2.665653149368355
 20
0.1393954855344634
 30
0.0
 10
2.660090779439807
 20
0.1410149700411696
 30
0.0
 10
2.648431554031912
 20
0.1410189282314857
 30
0.0
 10
2.642847286146421
 20
0.1393958653953252
 30
0.0
 10
2.63994763940205
 20
0.1368667610498194
 30
0.0
  0
SPLINE
  5
1F6
330
1F
100
AcDbEntity
  8
0
  6
Continuous
 62
     7
370
    25
100
AcDbSpline
210
0.0
220
0.0
230
1.0
 70
     8
 71
     3
 72
     8
 73
     4
 74
     0
 42
0.00000001
 43
0.00000001
 40
0.0000004027994181
 40
0.0000004027994181
 40
0.0000004027994181
 40
0.0000004027994181
 40
0.0015054402801864
 40
0.0015054402801864
 40
0.0015054402801864
 40
0.0015054402801864
 10
2.698
 20
0.1111577783089066
 30
0.0
 10
2.688193058581049
 20
0.1197299972305983
 30
0.0
 10
2.678375266086485
 20
0.1282991129372434
 30
0.0
 10
2.66855236059795
 20
0.136866761049819
 30
0.0
  0
SPLINE
  5
1F8
330
1F
100
AcDbEntity
  8
0
  6
Continuous
 62
     7
370
    25
100
AcDbSpline
210
0.0
220
0.0
230
1.0
 70
     8
 71
     3
 72
     8
 73
     4
 74
     0
 42
0.00000001
 43
0.00000001
 40
0.0000004021446289
 40
0.0000004021446289
 40
0.0000004021446289
 40
0.0000004021446289
 40
0.0015054396253972
 40
0.0015054396253972
 40
0.0015054396253972
 40
0.0015054396253972
 10
2.739947639402051
 20
0.1368667610498188
 30
0.0
 10
2.730124733913516
 20
0.1282991129372433
 30
0.0
 10
2.720306941418951
 20
0.1197299972305983
 30
0.0
 10
2.7105
 20
0.1111577783089066
 30
0.0
  0
SPLINE
  5
1F9
330
1F
100
AcDbEntity
  8
0
  6
Continuous
 62
     7
370
    25
100
AcDbSpline
210
0.0
220
0.0
230
1.0
 70
     8
 71
     3
 72
    10
 73
     6
 74
     0
 42
0.00000001
 43
0.00000001
 40
0.0
 40
0.0
 40
0.0
 40
0.0
 40
0.5
 40
0.5
 40
1.0
 40
1.0
 40
1.0
 40
1.0
 10
2.76855236059795
 20
0.1368667610498189
 30
0.0
 10
2.765653149368354
 20
0.1393954855344634
 30
0.0
 10
2.760090779439807
 20
0.1410149700411696
 30
0.0
 10
2.748431554031912
 20
0.1410189282314857
 30
0.0
 10
2.742847286146421
 20
0.1393958653953252
 30
0.0
 10
2.73994763940205
 20
0.1368667610498194
 30
0.0
  0
SPLINE
  5
1FA
330
1F
100
AcDbEntity
  8
0
  6
Continuous
 62
     7
370
    25
100
AcDbSpline
210
0.0
220
0.0
230
1.0
 70
     8
 71
     3
 72
     8
 73
     4
 74
     0
 42
0.00000001
 43
0.00000001
 40
0.0000004027994181
 40
0.0000004027994181
 40
0.0000004027994181
 40
0.0000004027994181
 40
0.0015054402801864
 40
0.0015054402801864
 40
0.0015054402801864
 40
0.0015054402801864
 10
2.798
 20
0.1111577783089066
 30
0.0
 10
2.788193058581049
 20
0.1197299972305984
 30
0.0
 10
2.778375266086485
 20
0.1282991129372434
 30
0.0
 10
2.76855236059795
 20
0.136866761049819
 30
0.0
  0
SPLINE
  5
1FC
330
1F
100
AcDbEntity
  8
0
  6
Continuous
 62
     7
370
    25
100
AcDbSpline
210
0.0
220
0.0
230
1.0
 70
     8
 71
     3
 72
     8
 73
     4
 74
     0
 42
0.00000001
 43
0.00000001
 40
0.0000004021446289
 40
0.0000004021446289
 40
0.0000004021446289
 40
0.0000004021446289
 40
0.0015054396253972
 40
0.0015054396253972
 40
0.0015054396253972
 40
0.0015054396253972
 10
2.839947639402051
 20
0.1368667610498188
 30
0.0
 10
2.830124733913516
 20
0.1282991129372433
 30
0.0
 10
2.820306941418951
 20
0.1197299972305983
 30
0.0
 10
2.8105
 20
0.1111577783089066
 30
0.0
  0
SPLINE
  5
1FD
330
1F
100
AcDbEntity
  8
0
  6
Continuous
 62
     7
370
    25
100
AcDbSpline
210
0.0
220
0.0
230
1.0
 70
     8
 71
     3
 72
    10
 73
     6
 74
     0
 42
0.00000001
 43
0.00000001
 40
0.0
 40
0.0
 40
0.0
 40
0.0
 40
0.5
 40
0.5
 40
1.0
 40
1.0
 40
1.0
 40
1.0
 10
2.86855236059795
 20
0.1368667610498189
 30
0.0
 10
2.865653149368355
 20
0.1393954855344634
 30
0.0
 10
2.860090779439807
 20
0.1410149700411696
 30
0.0
 10
2.848431554031912
 20
0.1410189282314857
 30
0.0
 10
2.842847286146421
 20
0.1393958653953252
 30
0.0
 10
2.83994763940205
 20
0.1368667610498194
 30
0.0
  0
SPLINE
  5
1FE
330
1F
100
AcDbEntity
  8
0
  6
Continuous
 62
     7
370
    25
100
AcDbSpline
210
0.0
220
0.0
230
1.0
 70
     8
 71
     3
 72
     8
 73
     4
 74
     0
 42
0.00000001
 43
0.00000001
 40
0.0000004027994181
 40
0.0000004027994181
 40
0.0000004027994181
 40
0.0000004027994181
 40
0.0015054402801864
 40
0.0015054402801864
 40
0.0015054402801864
 40
0.0015054402801864
 10
2.898
 20
0.1111577783089066
 30
0.0
 10
2.88819305858105
 20
0.1197299972305984
 30
0.0
 10
2.878375266086485
 20
0.1282991129372434
 30
0.0
 10
2.86855236059795
 20
0.136866761049819
 30
0.0
  0
SPLINE
  5
200
330
1F
100
AcDbEntity
  8
0
  6
Continuous
 62
     7
370
    25
100
AcDbSpline
210
0.0
220
0.0
230
1.0
 70
     8
 71
     3
 72
     8
 73
     4
 74
     0
 42
0.00000001
 43
0.00000001
 40
0.0000004021446289
 40
0.0000004021446289
 40
0.0000004021446289
 40
0.0000004021446289
 40
0.0015054396253972
 40
0.0015054396253972
 40
0.0015054396253972
 40
0.0015054396253972
 10
2.939947639402051
 20
0.1368667610498188
 30
0.0
 10
2.930124733913516
 20
0.1282991129372433
 30
0.0
 10
2.920306941418951
 20
0.1197299972305983
 30
0.0
 10
2.9105
 20
0.1111577783089066
 30
0.0
  0
SPLINE
  5
201
330
1F
100
AcDbEntity
  8
0
  6
Continuous
 62
     7
370
    25
100
AcDbSpline
210
0.0
220
0.0
230
1.0
 70
     8
 71
     3
 72
    10
 73
     6
 74
     0
 42
0.00000001
 43
0.00000001
 40
0.0
 40
0.0
 40
0.0
 40
0.0
 40
0.5
 40
0.5
 40
1.0
 40
1.0
 40
1.0
 40
1.0
 10
2.96855236059795
 20
0.1368667610498189
 30
0.0
 10
2.965653149368352
 20
0.1393954855344634
 30
0.0
 10
2.960090779439807
 20
0.1410149700411696
 30
0.0
 10
2.948431554031912
 20
0.1410189282314857
 30
0.0
 10
2.942847286146421
 20
0.1393958653953252
 30
0.0
 10
2.93994763940205
 20
0.1368667610498194
 30
0.0
  0
SPLINE
  5
202
330
1F
100
AcDbEntity
  8
0
  6
Continuous
 62
     7
370
    25
100
AcDbSpline
210
0.0
220
0.0
230
1.0
 70
     8
 71
     3
 72
     8
 73
     4
 74
     0
 42
0.00000001
 43
0.00000001
 40
0.0000004027994181
 40
0.0000004027994181
 40
0.0000004027994181
 40
0.0000004027994181
 40
0.0015054402801864
 40
0.0015054402801864
 40
0.0015054402801864
 40
0.0015054402801864
 10
2.998
 20
0.1111577783089066
 30
0.0
 10
2.98819305858105
 20
0.1197299972305984
 30
0.0
 10
2.978375266086485
 20
0.1282991129372434
 30
0.0
 10
2.96855236059795
 20
0.136866761049819
 30
0.0
  0
SPLINE
  5
204
330
1F
100
AcDbEntity
  8
0
  6
Continuous
 62
     7
370
    25
100
AcDbSpline
210
0.0
220
0.0
230
1.0
 70
     8
 71
     3
 72
     8
 73
     4
 74
     0
 42
0.00000001
 43
0.00000001
 40
0.0000004021446289
 40
0.0000004021446289
 40
0.0000004021446289
 40
0.0000004021446289
 40
0.0015054396253972
 40
0.0015054396253972
 40
0.0015054396253972
 40
0.0015054396253972
 10
3.039947639402051
 20
0.1368667610498188
 30
0.0
 10
3.030124733913516
 20
0.1282991129372433
 30
0.0
 10
3.020306941418951
 20
0.1197299972305983
 30
0.0
 10
3.0105
 20
0.1111577783089066
 30
0.0
  0
SPLINE
  5
205
330
1F
100
AcDbEntity
  8
0
  6
Continuous
 62
     7
370
    25
100
AcDbSpline
210
0.0
220
0.0
230
1.0
 70
     8
 71
     3
 72
    10
 73
     6
 74
     0
 42
0.00000001
 43
0.00000001
 40
0.0
 40
0.0
 40
0.0
 40
0.0
 40
0.5
 40
0.5
 40
1.0
 40
1.0
 40
1.0
 40
1.0
 10
3.068552360597951
 20
0.1368667610498189
 30
0.0
 10
3.065653149368354
 20
0.1393954855344634
 30
0.0
 10
3.060090779439807
 20
0.1410149700411696
 30
0.0
 10
3.048431554031912
 20
0.1410189282314857
 30
0.0
 10
3.042847286146421
 20
0.1393958653953252
 30
0.0
 10
3.03994763940205
 20
0.1368667610498194
 30
0.0
  0
SPLINE
  5
206
330
1F
100
AcDbEntity
  8
0
  6
Continuous
 62
     7
370
    25
100
AcDbSpline
210
0.0
220
0.0
230
1.0
 70
     8
 71
     3
 72
     8
 73
     4
 74
     0
 42
0.00000001
 43
0.00000001
 40
0.0000004027994181
 40
0.0000004027994181
 40
0.0000004027994181
 40
0.0000004027994181
 40
0.0015054402801864
 40
0.0015054402801864
 40
0.0015054402801864
 40
0.0015054402801864
 10
3.098
 20
0.1111577783089066
 30
0.0
 10
3.08819305858105
 20
0.1197299972305984
 30
0.0
 10
3.078375266086485
 20
0.1282991129372434
 30
0.0
 10
3.068552360597951
 20
0.136866761049819
 30
0.0
  0
SPLINE
  5
208
330
1F
100
AcDbEntity
  8
0
  6
Continuous
 62
     7
370
    25
100
AcDbSpline
210
0.0
220
0.0
230
1.0
 70
     8
 71
     3
 72
     8
 73
     4
 74
     0
 42
0.00000001
 43
0.00000001
 40
0.0000004021446289
 40
0.0000004021446289
 40
0.0000004021446289
 40
0.0000004021446289
 40
0.0015054396253972
 40
0.0015054396253972
 40
0.0015054396253972
 40
0.0015054396253972
 10
3.139947639402052
 20
0.1368667610498188
 30
0.0
 10
3.130124733913517
 20
0.1282991129372433
 30
0.0
 10
3.120306941418951
 20
0.1197299972305983
 30
0.0
 10
3.1105
 20
0.1111577783089066
 30
0.0
  0
SPLINE
  5
209
330
1F
100
AcDbEntity
  8
0
  6
Continuous
 62
     7
370
    25
100
AcDbSpline
210
0.0
220
0.0
230
1.0
 70
     8
 71
     3
 72
    10
 73
     6
 74
     0
 42
0.00000001
 43
0.00000001
 40
0.0
 40
0.0
 40
0.0
 40
0.0
 40
0.5
 40
0.5
 40
1.0
 40
1.0
 40
1.0
 40
1.0
 10
3.168552360597951
 20
0.1368667610498189
 30
0.0
 10
3.165653149368355
 20
0.1393954855344634
 30
0.0
 10
3.160090779439808
 20
0.1410149700411696
 30
0.0
 10
3.148431554031911
 20
0.1410189282314857
 30
0.0
 10
3.142847286146421
 20
0.1393958653953252
 30
0.0
 10
3.13994763940205
 20
0.1368667610498194
 30
0.0
  0
SPLINE
  5
20A
330
1F
100
AcDbEntity
  8
0
  6
Continuous
 62
     7
370
    25
100
AcDbSpline
210
0.0
220
0.0
230
1.0
 70
     8
 71
     3
 72
     8
 73
     4
 74
     0
 42
0.00000001
 43
0.00000001
 40
0.0000004027994181
 40
0.0000004027994181
 40
0.0000004027994181
 40
0.0000004027994181
 40
0.0015054402801864
 40
0.0015054402801864
 40
0.0015054402801864
 40
0.0015054402801864
 10
3.198
 20
0.1111577783089066
 30
0.0
 10
3.18819305858105
 20
0.1197299972305984
 30
0.0
 10
3.178375266086485
 20
0.1282991129372434
 30
0.0
 10
3.168552360597951
 20
0.136866761049819
 30
0.0
  0
SPLINE
  5
20C
330
1F
100
AcDbEntity
  8
0
  6
Continuous
 62
     7
370
    25
100
AcDbSpline
210
0.0
220
0.0
230
1.0
 70
     8
 71
     3
 72
     8
 73
     4
 74
     0
 42
0.00000001
 43
0.00000001
 40
0.0000004021446289
 40
0.0000004021446289
 40
0.0000004021446289
 40
0.0000004021446289
 40
0.0015054396253972
 40
0.0015054396253972
 40
0.0015054396253972
 40
0.0015054396253972
 10
3.239947639402051
 20
0.1368667610498188
 30
0.0
 10
3.230124733913517
 20
0.1282991129372433
 30
0.0
 10
3.220306941418951
 20
0.1197299972305983
 30
0.0
 10
3.2105
 20
0.1111577783089066
 30
0.0
  0
SPLINE
  5
20D
330
1F
100
AcDbEntity
  8
0
  6
Continuous
 62
     7
370
    25
100
AcDbSpline
210
0.0
220
0.0
230
1.0
 70
     8
 71
     3
 72
    10
 73
     6
 74
     0
 42
0.00000001
 43
0.00000001
 40
0.0
 40
0.0
 40
0.0
 40
0.0
 40
0.5
 40
0.5
 40
1.0
 40
1.0
 40
1.0
 40
1.0
 10
3.26855236059795
 20
0.1368667610498189
 30
0.0
 10
3.265653149368355
 20
0.1393954855344634
 30
0.0
 10
3.260090779439808
 20
0.1410149700411696
 30
0.0
 10
3.248431554031911
 20
0.1410189282314857
 30
0.0
 10
3.242847286146421
 20
0.1393958653953252
 30
0.0
 10
3.23994763940205
 20
0.1368667610498194
 30
0.0
  0
SPLINE
  5
20E
330
1F
100
AcDbEntity
  8
0
  6
Continuous
 62
     7
370
    25
100
AcDbSpline
210
0.0
220
0.0
230
1.0
 70
     8
 71
     3
 72
     8
 73
     4
 74
     0
 42
0.00000001
 43
0.00000001
 40
0.0000004027994181
 40
0.0000004027994181
 40
0.0000004027994181
 40
0.0000004027994181
 40
0.0015054402801864
 40
0.0015054402801864
 40
0.0015054402801864
 40
0.0015054402801864
 10
3.298
 20
0.1111577783089066
 30
0.0
 10
3.28819305858105
 20
0.1197299972305984
 30
0.0
 10
3.278375266086485
 20
0.1282991129372434
 30
0.0
 10
3.26855236059795
 20
0.136866761049819
 30
0.0
  0
SPLINE
  5
210
330
1F
100
AcDbEntity
  8
0
  6
Continuous
 62
     7
370
    25
100
AcDbSpline
210
0.0
220
0.0
230
1.0
 70
     8
 71
     3
 72
     8
 73
     4
 74
     0
 42
0.00000001
 43
0.00000001
 40
0.0000004021446289
 40
0.0000004021446289
 40
0.0000004021446289
 40
0.0000004021446289
 40
0.0015054396253972
 40
0.0015054396253972
 40
0.0015054396253972
 40
0.0015054396253972
 10
3.339947639402051
 20
0.1368667610498188
 30
0.0
 10
3.330124733913516
 20
0.1282991129372433
 30
0.0
 10
3.320306941418951
 20
0.1197299972305983
 30
0.0
 10
3.3105
 20
0.1111577783089066
 30
0.0
  0
SPLINE
  5
211
330
1F
100
AcDbEntity
  8
0
  6
Continuous
 62
     7
370
    25
100
AcDbSpline
210
0.0
220
0.0
230
1.0
 70
     8
 71
     3
 72
    10
 73
     6
 74
     0
 42
0.00000001
 43
0.00000001
 40
0.0
 40
0.0
 40
0.0
 40
0.0
 40
0.5
 40
0.5
 40
1.0
 40
1.0
 40
1.0
 40
1.0
 10
3.36855236059795
 20
0.1368667610498189
 30
0.0
 10
3.365653149368354
 20
0.1393954855344634
 30
0.0
 10
3.360090779439807
 20
0.1410149700411696
 30
0.0
 10
3.348431554031912
 20
0.1410189282314857
 30
0.0
 10
3.342847286146422
 20
0.1393958653953252
 30
0.0
 10
3.33994763940205
 20
0.1368667610498194
 30
0.0
  0
SPLINE
  5
212
330
1F
100
AcDbEntity
  8
0
  6
Continuous
 62
     7
370
    25
100
AcDbSpline
210
0.0
220
0.0
230
1.0
 70
     8
 71
     3
 72
     8
 73
     4
 74
     0
 42
0.00000001
 43
0.00000001
 40
0.0000004027994181
 40
0.0000004027994181
 40
0.0000004027994181
 40
0.0000004027994181
 40
0.0015054402801864
 40
0.0015054402801864
 40
0.0015054402801864
 40
0.0015054402801864
 10
3.398
 20
0.1111577783089066
 30
0.0
 10
3.38819305858105
 20
0.1197299972305984
 30
0.0
 10
3.378375266086485
 20
0.1282991129372434
 30
0.0
 10
3.36855236059795
 20
0.136866761049819
 30
0.0
  0
SPLINE
  5
222
330
1F
100
AcDbEntity
  8
0
  6
Continuous
 62
     7
370
    25
100
AcDbSpline
210
0.0
220
0.0
230
1.0
 70
     8
 71
     3
 72
    14
 73
    10
 74
     0
 42
0.00000001
 43
0.00000001
 40
0.0
 40
0.0
 40
0.0
 40
0.0
 40
0.25
 40
0.25
 40
0.5
 40
0.5
 40
0.75
 40
0.75
 40
1.0
 40
1.0
 40
1.0
 40
1.0
 10
3.139947639402051
 20
0.1796104047649411
 30
0.0
 10
3.141254671696687
 20
0.1803153582318162
 30
0.0
 10
3.143190220172895
 20
0.1809584705801578
 30
0.0
 10
3.148176787815009
 20
0.1818887759641523
 30
0.0
 10
3.151213651364547
 20
0.1821593838453563
 30
0.0
 10
3.157312331304816
 20
0.1821579148899314
 30
0.0
 10
3.16032583819807
 20
0.181887961181915
 30
0.0
 10
3.165298448904789
 20
0.1809609088017717
 30
0.0
 10
3.167230911726195
 20
0.180323133874439
 30
0.0
 10
3.16855236059795
 20
0.1796104047649411
 30
0.0
  0
SPLINE
  5
225
330
1F
100
AcDbEntity
  8
0
  6
Continuous
 62
     7
370
    25
100
AcDbSpline
210
0.0
220
0.0
230
1.0
 70
     8
 71
     3
 72
    14
 73
    10
 74
     0
 42
0.00000001
 43
0.00000001
 40
0.0
 40
0.0
 40
0.0
 40
0.0
 40
0.25
 40
0.25
 40
0.5
 40
0.5
 40
0.75
 40
0.75
 40
1.0
 40
1.0
 40
1.0
 40
1.0
 10
2.639947639402051
 20
0.1796104047649411
 30
0.0
 10
2.641254671696688
 20
0.1803153582318161
 30
0.0
 10
2.643190220172894
 20
0.1809584705801579
 30
0.0
 10
2.64817678781501
 20
0.1818887759641523
 30
0.0
 10
2.651213651364545
 20
0.1821593838453563
 30
0.0
 10
2.657312331304817
 20
0.1821579148899314
 30
0.0
 10
2.660325838198069
 20
0.181887961181915
 30
0.0
 10
2.665298448904791
 20
0.1809609088017716
 30
0.0
 10
2.667230911726196
 20
0.180323133874439
 30
0.0
 10
2.66855236059795
 20
0.179610404764941
 30
0.0
  0
SPLINE
  5
228
330
1F
100
AcDbEntity
  8
0
  6
Continuous
 62
     7
370
    25
100
AcDbSpline
210
0.0
220
0.0
230
1.0
 70
     8
 71
     3
 72
    14
 73
    10
 74
     0
 42
0.00000001
 43
0.00000001
 40
0.0
 40
0.0
 40
0.0
 40
0.0
 40
0.25
 40
0.25
 40
0.5
 40
0.5
 40
0.75
 40
0.75
 40
1.0
 40
1.0
 40
1.0
 40
1.0
 10
2.739947639402051
 20
0.1796104047649411
 30
0.0
 10
2.741254671696687
 20
0.180315358231816
 30
0.0
 10
2.743190220172895
 20
0.1809584705801577
 30
0.0
 10
2.748176787815007
 20
0.1818887759641521
 30
0.0
 10
2.75121365136454
 20
0.1821593838453562
 30
0.0
 10
2.757312331304821
 20
0.1821579148899315
 30
0.0
 10
2.760325838198063
 20
0.1818879611819162
 30
0.0
 10
2.765298448904796
 20
0.1809609088017708
 30
0.0
 10
2.767230911726198
 20
0.1803231338744377
 30
0.0
 10
2.76855236059795
 20
0.179610404764941
 30
0.0
  0
SPLINE
  5
22B
330
1F
100
AcDbEntity
  8
0
  6
Continuous
 62
     7
370
    25
100
AcDbSpline
210
0.0
220
0.0
230
1.0
 70
     8
 71
     3
 72
    14
 73
    10
 74
     0
 42
0.00000001
 43
0.00000001
 40
0.0
 40
0.0
 40
0.0
 40
0.0
 40
0.25
 40
0.25
 40
0.5
 40
0.5
 40
0.75
 40
0.75
 40
1.0
 40
1.0
 40
1.0
 40
1.0
 10
3.239947639402051
 20
0.1796104047649411
 30
0.0
 10
3.241254671696689
 20
0.1803153582318162
 30
0.0
 10
3.243190220172894
 20
0.1809584705801578
 30
0.0
 10
3.24817678781501
 20
0.1818887759641523
 30
0.0
 10
3.251213651364546
 20
0.1821593838453563
 30
0.0
 10
3.257312331304817
 20
0.1821579148899314
 30
0.0
 10
3.260325838198069
 20
0.181887961181915
 30
0.0
 10
3.26529844890479
 20
0.1809609088017717
 30
0.0
 10
3.267230911726196
 20
0.180323133874439
 30
0.0
 10
3.26855236059795
 20
0.179610404764941
 30
0.0
  0
SPLINE
  5
22E
330
1F
100
AcDbEntity
  8
0
  6
Continuous
 62
     7
370
    25
100
AcDbSpline
210
0.0
220
0.0
230
1.0
 70
     8
 71
     3
 72
    14
 73
    10
 74
     0
 42
0.00000001
 43
0.00000001
 40
0.0
 40
0.0
 40
0.0
 40
0.0
 40
0.25
 40
0.25
 40
0.5
 40
0.5
 40
0.75
 40
0.75
 40
1.0
 40
1.0
 40
1.0
 40
1.0
 10
3.339947639402051
 20
0.1796104047649411
 30
0.0
 10
3.341254671696688
 20
0.1803153582318162
 30
0.0
 10
3.343190220172895
 20
0.1809584705801578
 30
0.0
 10
3.348176787815011
 20
0.1818887759641523
 30
0.0
 10
3.351213651364547
 20
0.1821593838453563
 30
0.0
 10
3.357312331304816
 20
0.1821579148899314
 30
0.0
 10
3.36032583819807
 20
0.181887961181915
 30
0.0
 10
3.36529844890479
 20
0.1809609088017717
 30
0.0
 10
3.367230911726196
 20
0.180323133874439
 30
0.0
 10
3.36855236059795
 20
0.179610404764941
 30
0.0
  0
SPLINE
  5
231
330
1F
100
AcDbEntity
  8
0
  6
Continuous
 62
     7
370
    25
100
AcDbSpline
210
0.0
220
0.0
230
1.0
 70
     8
 71
     3
 72
    14
 73
    10
 74
     0
 42
0.00000001
 43
0.00000001
 40
0.0
 40
0.0
 40
0.0
 40
0.0
 40
0.25
 40
0.25
 40
0.5
 40
0.5
 40
0.75
 40
0.75
 40
1.0
 40
1.0
 40
1.0
 40
1.0
 10
3.039947639402051
 20
0.1796104047649411
 30
0.0
 10
3.041254671696688
 20
0.1803153582318162
 30
0.0
 10
3.043190220172894
 20
0.1809584705801578
 30
0.0
 10
3.04817678781501
 20
0.1818887759641523
 30
0.0
 10
3.051213651364546
 20
0.1821593838453563
 30
0.0
 10
3.057312331304816
 20
0.1821579148899314
 30
0.0
 10
3.060325838198069
 20
0.181887961181915
 30
0.0
 10
3.06529844890479
 20
0.1809609088017717
 30
0.0
 10
3.067230911726196
 20
0.180323133874439
 30
0.0
 10
3.06855236059795
 20
0.1796104047649411
 30
0.0
  0
SPLINE
  5
234
330
1F
100
AcDbEntity
  8
0
  6
Continuous
 62
     7
370
    25
100
AcDbSpline
210
0.0
220
0.0
230
1.0
 70
     8
 71
     3
 72
    14
 73
    10
 74
     0
 42
0.00000001
 43
0.00000001
 40
0.0
 40
0.0
 40
0.0
 40
0.0
 40
0.25
 40
0.25
 40
0.5
 40
0.5
 40
0.75
 40
0.75
 40
1.0
 40
1.0
 40
1.0
 40
1.0
 10
2.839947639402051
 20
0.1796104047649411
 30
0.0
 10
2.841254671696688
 20
0.180315358231816
 30
0.0
 10
2.843190220172894
 20
0.1809584705801577
 30
0.0
 10
2.848176787815007
 20
0.1818887759641521
 30
0.0
 10
2.85121365136454
 20
0.1821593838453562
 30
0.0
 10
2.857312331304822
 20
0.1821579148899316
 30
0.0
 10
2.860325838198063
 20
0.1818879611819163
 30
0.0
 10
2.865298448904797
 20
0.1809609088017708
 30
0.0
 10
2.867230911726198
 20
0.1803231338744378
 30
0.0
 10
2.86855236059795
 20
0.1796104047649411
 30
0.0
  0
SPLINE
  5
237
330
1F
100
AcDbEntity
  8
0
  6
Continuous
 62
     7
370
    25
100
AcDbSpline
210
0.0
220
0.0
230
1.0
 70
     8
 71
     3
 72
    14
 73
    10
 74
     0
 42
0.00000001
 43
0.00000001
 40
0.0
 40
0.0
 40
0.0
 40
0.0
 40
0.25
 40
0.25
 40
0.5
 40
0.5
 40
0.75
 40
0.75
 40
1.0
 40
1.0
 40
1.0
 40
1.0
 10
2.939947639402051
 20
0.1796104047649411
 30
0.0
 10
2.941254671696686
 20
0.1803153582318162
 30
0.0
 10
2.943190220172896
 20
0.1809584705801578
 30
0.0
 10
2.948176787815009
 20
0.1818887759641523
 30
0.0
 10
2.951213651364546
 20
0.1821593838453563
 30
0.0
 10
2.957312331304816
 20
0.1821579148899315
 30
0.0
 10
2.96032583819807
 20
0.181887961181915
 30
0.0
 10
2.96529844890479
 20
0.1809609088017717
 30
0.0
 10
2.967230911726197
 20
0.180323133874439
 30
0.0
 10
2.96855236059795
 20
0.179610404764941
 30
0.0
  0
SPLINE
  5
23A
330
1F
100
AcDbEntity
  8
0
  6
Continuous
 62
     7
370
    25
100
AcDbSpline
210
0.0
220
0.0
230
1.0
 70
     8
 71
     3
 72
    14
 73
    10
 74
     0
 42
0.00000001
 43
0.00000001
 40
0.0
 40
0.0
 40
0.0
 40
0.0
 40
0.25
 40
0.25
 40
0.5
 40
0.5
 40
0.75
 40
0.75
 40
1.0
 40
1.0
 40
1.0
 40
1.0
 10
2.539947639402051
 20
0.1796104047649411
 30
0.0
 10
2.541254671696687
 20
0.180315358231816
 30
0.0
 10
2.543190220172895
 20
0.1809584705801577
 30
0.0
 10
2.548176787815008
 20
0.1818887759641521
 30
0.0
 10
2.551213651364539
 20
0.1821593838453562
 30
0.0
 10
2.557312331304821
 20
0.1821579148899315
 30
0.0
 10
2.560325838198063
 20
0.1818879611819162
 30
0.0
 10
2.565298448904796
 20
0.1809609088017708
 30
0.0
 10
2.567230911726198
 20
0.1803231338744377
 30
0.0
 10
2.56855236059795
 20
0.179610404764941
 30
0.0
  0
SPLINE
  5
23D
330
1F
100
AcDbEntity
  8
0
  6
Continuous
 62
     7
370
    25
100
AcDbSpline
210
0.0
220
0.0
230
1.0
 70
     8
 71
     3
 72
    14
 73
    10
 74
     0
 42
0.00000001
 43
0.00000001
 40
0.0
 40
0.0
 40
0.0
 40
0.0
 40
0.2500000000000046
 40
0.2500000000000046
 40
0.5000000000000091
 40
0.5000000000000091
 40
0.7500000000000137
 40
0.7500000000000137
 40
1.0
 40
1.0
 40
1.0
 40
1.0
 10
2.439947639402051
 20
0.1796104047649411
 30
0.0
 10
2.441254671696687
 20
0.180315358231816
 30
0.0
 10
2.443190220172894
 20
0.1809584705801576
 30
0.0
 10
2.448176787815008
 20
0.1818887759641521
 30
0.0
 10
2.451213651364539
 20
0.1821593838453562
 30
0.0
 10
2.457312331304821
 20
0.1821579148899315
 30
0.0
 10
2.460325838198061
 20
0.1818879611819163
 30
0.0
 10
2.465298448904795
 20
0.1809609088017708
 30
0.0
 10
2.467230911726197
 20
0.1803231338744378
 30
0.0
 10
2.46855236059795
 20
0.1796104047649411
 30
0.0
  0
SPLINE
  5
23F
330
1F
100
AcDbEntity
  8
0
  6
Continuous
 62
     7
370
    25
100
AcDbSpline
210
0.0
220
0.0
230
1.0
 70
     8
 71
     3
 72
    10
 73
     6
 74
     0
 42
0.00000001
 43
0.00000001
 40
0.0
 40
0.0
 40
0.0
 40
0.0
 40
0.5
 40
0.5
 40
1.0
 40
1.0
 40
1.0
 40
1.0
 10
2.36855236059795
 20
0.1800036076586808
 30
0.0
 10
2.367221385732615
 20
0.1807562152526428
 30
0.0
 10
2.365263798910945
 20
0.1814488458708043
 30
0.0
 10
2.360332338104119
 20
0.1825157769667802
 30
0.0
 10
2.357314530817506
 20
0.1828883701975943
 30
0.0
 10
2.35425
 20
0.183001144646046
 30
0.0
  0
SPLINE
  5
240
330
1F
100
AcDbEntity
  8
0
  6
Continuous
 62
     7
370
    25
100
AcDbSpline
210
0.0
220
0.0
230
1.0
 70
     8
 71
     3
 72
     8
 73
     4
 74
     0
 42
0.00000001
 43
0.00000001
 40
0.0
 40
0.0
 40
0.0
 40
0.0
 40
1.0
 40
1.0
 40
1.0
 40
1.0
 10
3.068552360597951
 20
0.1796104047649411
 30
0.0
 10
3.078910942848618
 20
0.1740234590563446
 30
0.0
 10
3.088904134502867
 20
0.1683822434818973
 30
0.0
 10
3.098
 20
0.1626432873046319
 30
0.0
  0
SPLINE
  5
242
330
1F
100
AcDbEntity
  8
0
  6
Continuous
 62
     7
370
    25
100
AcDbSpline
210
0.0
220
0.0
230
1.0
 70
     8
 71
     3
 72
     8
 73
     4
 74
     0
 42
0.00000001
 43
0.00000001
 40
0.0
 40
0.0
 40
0.0
 40
0.0
 40
1.0
 40
1.0
 40
1.0
 40
1.0
 10
3.368552360597951
 20
0.1796104047649413
 30
0.0
 10
3.378910942848617
 20
0.1740234590563447
 30
0.0
 10
3.388904134502867
 20
0.1683822434818973
 30
0.0
 10
3.398
 20
0.1626432873046319
 30
0.0
  0
SPLINE
  5
244
330
1F
100
AcDbEntity
  8
0
  6
Continuous
 62
     7
370
    25
100
AcDbSpline
210
0.0
220
0.0
230
1.0
 70
     8
 71
     3
 72
     8
 73
     4
 74
     0
 42
0.00000001
 43
0.00000001
 40
0.0
 40
0.0
 40
0.0
 40
0.0
 40
1.0
 40
1.0
 40
1.0
 40
1.0
 10
3.168552360597952
 20
0.1796104047649411
 30
0.0
 10
3.178910942848618
 20
0.1740234590563446
 30
0.0
 10
3.188904134502867
 20
0.1683822434818973
 30
0.0
 10
3.198
 20
0.1626432873046319
 30
0.0
  0
SPLINE
  5
246
330
1F
100
AcDbEntity
  8
0
  6
Continuous
 62
     7
370
    25
100
AcDbSpline
210
0.0
220
0.0
230
1.0
 70
     8
 71
     3
 72
     8
 73
     4
 74
     0
 42
0.00000001
 43
0.00000001
 40
0.0
 40
0.0
 40
0.0
 40
0.0
 40
1.0
 40
1.0
 40
1.0
 40
1.0
 10
3.268552360597951
 20
0.1796104047649412
 30
0.0
 10
3.278910942848618
 20
0.1740234590563446
 30
0.0
 10
3.288904134502867
 20
0.1683822434818973
 30
0.0
 10
3.298
 20
0.1626432873046319
 30
0.0
  0
SPLINE
  5
248
330
1F
100
AcDbEntity
  8
0
  6
Continuous
 62
     7
370
    25
100
AcDbSpline
210
0.0
220
0.0
230
1.0
 70
     8
 71
     3
 72
     8
 73
     4
 74
     0
 42
0.00000001
 43
0.00000001
 40
0.0
 40
0.0
 40
0.0
 40
0.0
 40
1.0
 40
1.0
 40
1.0
 40
1.0
 10
2.868552360597951
 20
0.1796104047649411
 30
0.0
 10
2.878910942848618
 20
0.1740234590563446
 30
0.0
 10
2.888904134502867
 20
0.1683822434818973
 30
0.0
 10
2.898
 20
0.1626432873046319
 30
0.0
  0
SPLINE
  5
24A
330
1F
100
AcDbEntity
  8
0
  6
Continuous
 62
     7
370
    25
100
AcDbSpline
210
0.0
220
0.0
230
1.0
 70
     8
 71
     3
 72
     8
 73
     4
 74
     0
 42
0.00000001
 43
0.00000001
 40
0.0
 40
0.0
 40
0.0
 40
0.0
 40
1.0
 40
1.0
 40
1.0
 40
1.0
 10
2.768552360597951
 20
0.1796104047649412
 30
0.0
 10
2.778910942848617
 20
0.1740234590563446
 30
0.0
 10
2.788904134502867
 20
0.1683822434818973
 30
0.0
 10
2.798
 20
0.1626432873046318
 30
0.0
  0
SPLINE
  5
24C
330
1F
100
AcDbEntity
  8
0
  6
Continuous
 62
     7
370
    25
100
AcDbSpline
210
0.0
220
0.0
230
1.0
 70
     8
 71
     3
 72
     8
 73
     4
 74
     0
 42
0.00000001
 43
0.00000001
 40
0.0
 40
0.0
 40
0.0
 40
0.0
 40
1.0
 40
1.0
 40
1.0
 40
1.0
 10
2.968552360597951
 20
0.1796104047649411
 30
0.0
 10
2.978910942848618
 20
0.1740234590563446
 30
0.0
 10
2.988904134502867
 20
0.1683822434818973
 30
0.0
 10
2.998
 20
0.1626432873046319
 30
0.0
  0
SPLINE
  5
24E
330
1F
100
AcDbEntity
  8
0
  6
Continuous
 62
     7
370
    25
100
AcDbSpline
210
0.0
220
0.0
230
1.0
 70
     8
 71
     3
 72
     8
 73
     4
 74
     0
 42
0.00000001
 43
0.00000001
 40
0.0
 40
0.0
 40
0.0
 40
0.0
 40
1.0
 40
1.0
 40
1.0
 40
1.0
 10
2.668552360597951
 20
0.1796104047649412
 30
0.0
 10
2.678910942848617
 20
0.1740234590563446
 30
0.0
 10
2.688904134502867
 20
0.1683822434818973
 30
0.0
 10
2.698
 20
0.1626432873046318
 30
0.0
  0
SPLINE
  5
251
330
1F
100
AcDbEntity
  8
0
  6
Continuous
 62
     7
370
    25
100
AcDbSpline
210
0.0
220
0.0
230
1.0
 70
     8
 71
     3
 72
     8
 73
     4
 74
     0
 42
0.00000001
 43
0.00000001
 40
0.0
 40
0.0
 40
0.0
 40
0.0
 40
1.0
 40
1.0
 40
1.0
 40
1.0
 10
2.398
 20
0.1626446869216709
 30
0.0
 10
2.388934249384628
 20
0.1683774212504866
 30
0.0
 10
2.378948248995938
 20
0.1741251912001251
 30
0.0
 10
2.36855236059795
 20
0.1800036076586808
 30
0.0
  0
SPLINE
  5
252
330
1F
100
AcDbEntity
  8
0
  6
Continuous
 62
     7
370
    25
100
AcDbSpline
210
0.0
220
0.0
230
1.0
 70
     8
 71
     3
 72
     8
 73
     4
 74
     0
 42
0.00000001
 43
0.00000001
 40
0.0
 40
0.0
 40
0.0
 40
0.0
 40
1.0
 40
1.0
 40
1.0
 40
1.0
 10
2.568552360597951
 20
0.1796104047649412
 30
0.0
 10
2.578910942848617
 20
0.1740234590563446
 30
0.0
 10
2.588904134502867
 20
0.1683822434818973
 30
0.0
 10
2.598
 20
0.1626432873046318
 30
0.0
  0
SPLINE
  5
254
330
1F
100
AcDbEntity
  8
0
  6
Continuous
 62
     7
370
    25
100
AcDbSpline
210
0.0
220
0.0
230
1.0
 70
     8
 71
     3
 72
     8
 73
     4
 74
     0
 42
0.00000001
 43
0.00000001
 40
0.0
 40
0.0
 40
0.0
 40
0.0
 40
1.0
 40
1.0
 40
1.0
 40
1.0
 10
2.468552360597951
 20
0.1796104047649411
 30
0.0
 10
2.478910942848617
 20
0.1740234590563446
 30
0.0
 10
2.488904134502867
 20
0.1683822434818973
 30
0.0
 10
2.498
 20
0.1626432873046318
 30
0.0
  0
SPLINE
  5
256
330
1F
100
AcDbEntity
  8
0
  6
Continuous
 62
     7
370
    25
100
AcDbSpline
210
0.0
220
0.0
230
1.0
 70
     8
 71
     3
 72
     8
 73
     4
 74
     0
 42
0.00000001
 43
0.00000001
 40
0.0
 40
0.0
 40
0.0
 40
0.0
 40
1.0
 40
1.0
 40
1.0
 40
1.0
 10
3.1105
 20
0.1626432873046318
 30
0.0
 10
3.119601602017729
 20
0.1683858628890132
 30
0.0
 10
3.12958488577088
 20
0.174021209204401
 30
0.0
 10
3.139947639402052
 20
0.179610404764941
 30
0.0
  0
SPLINE
  5
258
330
1F
100
AcDbEntity
  8
0
  6
Continuous
 62
     7
370
    25
100
AcDbSpline
210
0.0
220
0.0
230
1.0
 70
     8
 71
     3
 72
     8
 73
     4
 74
     0
 42
0.00000001
 43
0.00000001
 40
0.0
 40
0.0
 40
0.0
 40
0.0
 40
1.0
 40
1.0
 40
1.0
 40
1.0
 10
3.3105
 20
0.1626432873046319
 30
0.0
 10
3.319601602017729
 20
0.1683858628890132
 30
0.0
 10
3.32958488577088
 20
0.174021209204401
 30
0.0
 10
3.339947639402051
 20
0.179610404764941
 30
0.0
  0
SPLINE
  5
25A
330
1F
100
AcDbEntity
  8
0
  6
Continuous
 62
     7
370
    25
100
AcDbSpline
210
0.0
220
0.0
230
1.0
 70
     8
 71
     3
 72
     8
 73
     4
 74
     0
 42
0.00000001
 43
0.00000001
 40
0.0
 40
0.0
 40
0.0
 40
0.0
 40
1.0
 40
1.0
 40
1.0
 40
1.0
 10
3.2105
 20
0.1626432873046319
 30
0.0
 10
3.219601602017729
 20
0.1683858628890132
 30
0.0
 10
3.22958488577088
 20
0.174021209204401
 30
0.0
 10
3.239947639402051
 20
0.179610404764941
 30
0.0
  0
SPLINE
  5
25C
330
1F
100
AcDbEntity
  8
0
  6
Continuous
 62
     7
370
    25
100
AcDbSpline
210
0.0
220
0.0
230
1.0
 70
     8
 71
     3
 72
     8
 73
     4
 74
     0
 42
0.00000001
 43
0.00000001
 40
0.0
 40
0.0
 40
0.0
 40
0.0
 40
1.0
 40
1.0
 40
1.0
 40
1.0
 10
2.8105
 20
0.1626432873046318
 30
0.0
 10
2.819601602017729
 20
0.1683858628890132
 30
0.0
 10
2.829584885770879
 20
0.174021209204401
 30
0.0
 10
2.839947639402051
 20
0.179610404764941
 30
0.0
  0
SPLINE
  5
25E
330
1F
100
AcDbEntity
  8
0
  6
Continuous
 62
     7
370
    25
100
AcDbSpline
210
0.0
220
0.0
230
1.0
 70
     8
 71
     3
 72
     8
 73
     4
 74
     0
 42
0.00000001
 43
0.00000001
 40
0.0
 40
0.0
 40
0.0
 40
0.0
 40
1.0
 40
1.0
 40
1.0
 40
1.0
 10
2.9105
 20
0.1626432873046318
 30
0.0
 10
2.919601602017729
 20
0.1683858628890132
 30
0.0
 10
2.929584885770879
 20
0.174021209204401
 30
0.0
 10
2.939947639402051
 20
0.179610404764941
 30
0.0
  0
SPLINE
  5
260
330
1F
100
AcDbEntity
  8
0
  6
Continuous
 62
     7
370
    25
100
AcDbSpline
210
0.0
220
0.0
230
1.0
 70
     8
 71
     3
 72
     8
 73
     4
 74
     0
 42
0.00000001
 43
0.00000001
 40
0.0
 40
0.0
 40
0.0
 40
0.0
 40
1.0
 40
1.0
 40
1.0
 40
1.0
 10
3.0105
 20
0.1626432873046318
 30
0.0
 10
3.019601602017729
 20
0.1683858628890132
 30
0.0
 10
3.02958488577088
 20
0.174021209204401
 30
0.0
 10
3.039947639402051
 20
0.179610404764941
 30
0.0
  0
SPLINE
  5
262
330
1F
100
AcDbEntity
  8
0
  6
Continuous
 62
     7
370
    25
100
AcDbSpline
210
0.0
220
0.0
230
1.0
 70
     8
 71
     3
 72
     8
 73
     4
 74
     0
 42
0.00000001
 43
0.00000001
 40
0.0
 40
0.0
 40
0.0
 40
0.0
 40
1.0
 40
1.0
 40
1.0
 40
1.0
 10
2.5105
 20
0.1626432873046318
 30
0.0
 10
2.519601602017729
 20
0.1683858628890132
 30
0.0
 10
2.52958488577088
 20
0.174021209204401
 30
0.0
 10
2.539947639402051
 20
0.179610404764941
 30
0.0
  0
SPLINE
  5
264
330
1F
100
AcDbEntity
  8
0
  6
Continuous
 62
     7
370
    25
100
AcDbSpline
210
0.0
220
0.0
230
1.0
 70
     8
 71
     3
 72
     8
 73
     4
 74
     0
 42
0.00000001
 43
0.00000001
 40
0.0
 40
0.0
 40
0.0
 40
0.0
 40
1.0
 40
1.0
 40
1.0
 40
1.0
 10
2.6105
 20
0.1626432873046318
 30
0.0
 10
2.619601602017729
 20
0.1683858628890132
 30
0.0
 10
2.62958488577088
 20
0.174021209204401
 30
0.0
 10
2.639947639402051
 20
0.179610404764941
 30
0.0
  0
SPLINE
  5
266
330
1F
100
AcDbEntity
  8
0
  6
Continuous
 62
     7
370
    25
100
AcDbSpline
210
0.0
220
0.0
230
1.0
 70
     8
 71
     3
 72
     8
 73
     4
 74
     0
 42
0.00000001
 43
0.00000001
 40
0.0
 40
0.0
 40
0.0
 40
0.0
 40
1.0
 40
1.0
 40
1.0
 40
1.0
 10
2.7105
 20
0.1626432873046318
 30
0.0
 10
2.719601602017729
 20
0.1683858628890132
 30
0.0
 10
2.729584885770879
 20
0.174021209204401
 30
0.0
 10
2.739947639402051
 20
0.179610404764941
 30
0.0
  0
SPLINE
  5
268
330
1F
100
AcDbEntity
  8
0
  6
Continuous
 62
     7
370
    25
100
AcDbSpline
210
0.0
220
0.0
230
1.0
 70
     8
 71
     3
 72
     8
 73
     4
 74
     0
 42
0.00000001
 43
0.00000001
 40
0.0
 40
0.0
 40
0.0
 40
0.0
 40
1.0
 40
1.0
 40
1.0
 40
1.0
 10
2.4105
 20
0.1626432873046318
 30
0.0
 10
2.419601602017729
 20
0.1683858628890132
 30
0.0
 10
2.429584885770879
 20
0.174021209204401
 30
0.0
 10
2.439947639402051
 20
0.1796104047649409
 30
0.0
  0
SPLINE
  5
281
330
1F
100
AcDbEntity
  8
0
  6
Continuous
 62
     7
370
    25
100
AcDbSpline
210
0.0
220
0.0
230
1.0
 70
     8
 71
     3
 72
     8
 73
     4
 74
     0
 42
0.00000001
 43
0.00000001
 40
0.0000001999998063
 40
0.0000001999998063
 40
0.0000001999998063
 40
0.0000001999998063
 40
0.0000510000486331
 40
0.0000510000486331
 40
0.0000510000486331
 40
0.0000510000486331
 10
2.4
 20
-0.1628039293448869
 30
0.0
 10
2.399333332692562
 20
-0.1628039293448869
 30
0.0
 10
2.398666664744331
 20
-0.1628034695363811
 30
0.0
 10
2.397999999999974
 20
-0.1628025498704648
 30
0.0
  0
SPLINE
  5
2A4
330
1F
100
AcDbEntity
  8
0
  6
Continuous
 62
     7
370
    25
100
AcDbSpline
210
0.0
220
0.0
230
1.0
 70
     8
 71
     3
 72
     8
 73
     4
 74
     0
 42
0.00000001
 43
0.00000001
 40
0.0000001999998082
 40
0.0000001999998082
 40
0.0000001999998082
 40
0.0000001999998082
 40
0.0000510000481365
 40
0.0000510000481365
 40
0.0000510000481365
 40
0.0000510000481365
 10
2.4
 20
0.1626432873046319
 30
0.0
 10
2.399333332699105
 20
0.1626432873046319
 30
0.0
 10
2.398666664763953
 20
0.1626437538508244
 30
0.0
 10
2.398
 20
0.1626446869216709
 30
0.0
  0
SPLINE
  5
2A8
330
1F
100
AcDbEntity
  8
0
  6
Continuous
 62
     7
370
    25
100
AcDbSpline
210
0.0
220
0.0
230
1.0
 70
     8
 71
     3
 72
     8
 73
     4
 74
     0
 42
0.00000001
 43
0.00000001
 40
0.0000001999998082
 40
0.0000001999998082
 40
0.0000001999998082
 40
0.0000001999998082
 40
0.0000510000481365
 40
0.0000510000481365
 40
0.0000510000481365
 40
0.0000510000481365
 10
2.4
 20
-0.1642473373516876
 30
0.0
 10
2.399333332699105
 20
-0.1642473373516876
 30
0.0
 10
2.398666664763953
 20
-0.164246884353727
 30
0.0
 10
2.398
 20
-0.1642459783098852
 30
0.0
  0
SPLINE
  5
2A9
330
1F
100
AcDbEntity
  8
0
  6
Continuous
 62
     7
370
    25
100
AcDbSpline
210
0.0
220
0.0
230
1.0
 70
     8
 71
     3
 72
     8
 73
     4
 74
     0
 42
0.00000001
 43
0.00000001
 40
0.0
 40
0.0
 40
0.0
 40
0.0
 40
1.0
 40
1.0
 40
1.0
 40
1.0
 10
2.398
 20
-0.1642459783098848
 30
0.0
 10
2.388934249384628
 20
-0.1855811205708462
 30
0.0
 10
2.378948248995938
 20
-0.2065469578479581
 30
0.0
 10
2.36855236059795
 20
-0.2273806439862475
 30
0.0
  0
SPLINE
  5
2AA
330
1F
100
AcDbEntity
  8
0
  6
Continuous
 62
     7
370
    25
100
AcDbSpline
210
0.0
220
0.0
230
1.0
 70
     8
 71
     3
 72
    10
 73
     6
 74
     0
 42
0.00000001
 43
0.00000001
 40
0.0
 40
0.0
 40
0.0
 40
0.0
 40
0.5
 40
0.5
 40
1.0
 40
1.0
 40
1.0
 40
1.0
 10
2.36855236059795
 20
-0.2273806439862474
 30
0.0
 10
2.367221385732615
 20
-0.2300479593267716
 30
0.0
 10
2.365263798910945
 20
-0.2324172664618696
 30
0.0
 10
2.360332338104119
 20
-0.2357810545501202
 30
0.0
 10
2.357314530817506
 20
-0.2367587884111194
 30
0.0
 10
2.35425
 20
-0.236708581033556
 30
0.0
  0
SPLINE
  5
2AC
330
1F
100
AcDbEntity
  8
0
  6
Continuous
 62
     7
370
    25
100
AcDbSpline
210
0.0
220
0.0
230
1.0
 70
     8
 71
     3
 72
     8
 73
     4
 74
     0
 42
0.00000001
 43
0.00000001
 40
0.0
 40
0.0
 40
0.0
 40
0.0
 40
1.0
 40
1.0
 40
1.0
 40
1.0
 10
3.368552360597951
 20
-0.2275694817715525
 30
0.0
 10
3.378910942848617
 20
-0.2067187165279407
 30
0.0
 10
3.388904134502867
 20
-0.1856654133876538
 30
0.0
 10
3.398
 20
-0.1642473373516873
 30
0.0
  0
SPLINE
  5
2AD
330
1F
100
AcDbEntity
  8
0
  6
Continuous
 62
     7
370
    25
100
AcDbSpline
210
0.0
220
0.0
230
1.0
 70
     8
 71
     3
 72
    14
 73
    10
 74
     0
 42
0.00000001
 43
0.00000001
 40
0.0
 40
0.0
 40
0.0
 40
0.0
 40
0.25
 40
0.25
 40
0.5
 40
0.5
 40
0.75
 40
0.75
 40
1.0
 40
1.0
 40
1.0
 40
1.0
 10
3.339947639402051
 20
-0.2275694817715521
 30
0.0
 10
3.341276424634899
 20
-0.2302441903637931
 30
0.0
 10
3.343223056312119
 20
-0.2326204117487355
 30
0.0
 10
3.34812226696792
 20
-0.2360374876213886
 30
0.0
 10
3.351142948310757
 20
-0.2370748555354957
 30
0.0
 10
3.357312139068751
 20
-0.2370844414472208
 30
0.0
 10
3.360297482458941
 20
-0.2360817985189742
 30
0.0
 10
3.365274068163051
 20
-0.2326338858541867
 30
0.0
 10
3.367221578051952
 20
-0.2302482107514227
 30
0.0
 10
3.368552360598259
 20
-0.227569481771726
 30
0.0
  0
SPLINE
  5
2AE
330
1F
100
AcDbEntity
  8
0
  6
Continuous
 62
     7
370
    25
100
AcDbSpline
210
0.0
220
0.0
230
1.0
 70
     8
 71
     3
 72
     8
 73
     4
 74
     0
 42
0.00000001
 43
0.00000001
 40
0.0
 40
0.0
 40
0.0
 40
0.0
 40
1.0
 40
1.0
 40
1.0
 40
1.0
 10
3.3105
 20
-0.1642473373516872
 30
0.0
 10
3.319601602017729
 20
-0.1856789211989035
 30
0.0
 10
3.32958488577088
 20
-0.2067103199661774
 30
0.0
 10
3.339947639402051
 20
-0.2275694817715516
 30
0.0
  0
SPLINE
  5
2B0
330
1F
100
AcDbEntity
  8
0
  6
Continuous
 62
     7
370
    25
100
AcDbSpline
210
0.0
220
0.0
230
1.0
 70
     8
 71
     3
 72
     8
 73
     4
 74
     0
 42
0.00000001
 43
0.00000001
 40
0.0
 40
0.0
 40
0.0
 40
0.0
 40
1.0
 40
1.0
 40
1.0
 40
1.0
 10
3.268552360597951
 20
-0.2275694817715525
 30
0.0
 10
3.278910942848618
 20
-0.2067187165279406
 30
0.0
 10
3.288904134502867
 20
-0.1856654133876536
 30
0.0
 10
3.298
 20
-0.1642473373516871
 30
0.0
  0
SPLINE
  5
2B1
330
1F
100
AcDbEntity
  8
0
  6
Continuous
 62
     7
370
    25
100
AcDbSpline
210
0.0
220
0.0
230
1.0
 70
     8
 71
     3
 72
    14
 73
    10
 74
     0
 42
0.00000001
 43
0.00000001
 40
0.0
 40
0.0
 40
0.0
 40
0.0
 40
0.25
 40
0.25
 40
0.5
 40
0.5
 40
0.75
 40
0.75
 40
1.0
 40
1.0
 40
1.0
 40
1.0
 10
3.239947639402051
 20
-0.2275694817715521
 30
0.0
 10
3.241276424631812
 20
-0.230244190357579
 30
0.0
 10
3.243223056302984
 20
-0.2326204117376746
 30
0.0
 10
3.248122266942907
 20
-0.2360374876086331
 30
0.0
 10
3.251142948390018
 20
-0.237074855550145
 30
0.0
 10
3.257312139125607
 20
-0.2370844414327829
 30
0.0
 10
3.260297482498686
 20
-0.2360817984990548
 30
0.0
 10
3.265274068178204
 20
-0.2326338858360696
 30
0.0
 10
3.267221578056846
 20
-0.2302482107415723
 30
0.0
 10
3.268552360598259
 20
-0.227569481771726
 30
0.0
  0
SPLINE
  5
2B2
330
1F
100
AcDbEntity
  8
0
  6
Continuous
 62
     7
370
    25
100
AcDbSpline
210
0.0
220
0.0
230
1.0
 70
     8
 71
     3
 72
     8
 73
     4
 74
     0
 42
0.00000001
 43
0.00000001
 40
0.0
 40
0.0
 40
0.0
 40
0.0
 40
1.0
 40
1.0
 40
1.0
 40
1.0
 10
3.2105
 20
-0.1642473373516872
 30
0.0
 10
3.219601602017729
 20
-0.1856789211989035
 30
0.0
 10
3.22958488577088
 20
-0.2067103199661774
 30
0.0
 10
3.239947639402051
 20
-0.2275694817715516
 30
0.0
  0
SPLINE
  5
2B4
330
1F
100
AcDbEntity
  8
0
  6
Continuous
 62
     7
370
    25
100
AcDbSpline
210
0.0
220
0.0
230
1.0
 70
     8
 71
     3
 72
     8
 73
     4
 74
     0
 42
0.00000001
 43
0.00000001
 40
0.0
 40
0.0
 40
0.0
 40
0.0
 40
1.0
 40
1.0
 40
1.0
 40
1.0
 10
3.168552360597951
 20
-0.2275694817715525
 30
0.0
 10
3.178910942848618
 20
-0.2067187165279406
 30
0.0
 10
3.188904134502867
 20
-0.1856654133876536
 30
0.0
 10
3.198
 20
-0.1642473373516871
 30
0.0
  0
SPLINE
  5
2B5
330
1F
100
AcDbEntity
  8
0
  6
Continuous
 62
     7
370
    25
100
AcDbSpline
210
0.0
220
0.0
230
1.0
 70
     8
 71
     3
 72
    14
 73
    10
 74
     0
 42
0.00000001
 43
0.00000001
 40
0.0
 40
0.0
 40
0.0
 40
0.0
 40
0.25
 40
0.25
 40
0.5
 40
0.5
 40
0.75
 40
0.75
 40
1.0
 40
1.0
 40
1.0
 40
1.0
 10
3.139947639402051
 20
-0.2275694817715521
 30
0.0
 10
3.141276424634898
 20
-0.2302441903637931
 30
0.0
 10
3.143223056312117
 20
-0.2326204117487355
 30
0.0
 10
3.148122266967921
 20
-0.2360374876213886
 30
0.0
 10
3.151142948310757
 20
-0.2370748555354958
 30
0.0
 10
3.157312139068751
 20
-0.2370844414472208
 30
0.0
 10
3.16029748245894
 20
-0.2360817985189743
 30
0.0
 10
3.16527406816305
 20
-0.2326338858541867
 30
0.0
 10
3.167221578051952
 20
-0.2302482107514227
 30
0.0
 10
3.168552360598259
 20
-0.227569481771726
 30
0.0
  0
SPLINE
  5
2B6
330
1F
100
AcDbEntity
  8
0
  6
Continuous
 62
     7
370
    25
100
AcDbSpline
210
0.0
220
0.0
230
1.0
 70
     8
 71
     3
 72
     8
 73
     4
 74
     0
 42
0.00000001
 43
0.00000001
 40
0.0
 40
0.0
 40
0.0
 40
0.0
 40
1.0
 40
1.0
 40
1.0
 40
1.0
 10
3.1105
 20
-0.1642473373516872
 30
0.0
 10
3.119601602017729
 20
-0.1856789211989035
 30
0.0
 10
3.12958488577088
 20
-0.2067103199661774
 30
0.0
 10
3.139947639402052
 20
-0.2275694817715516
 30
0.0
  0
SPLINE
  5
2B8
330
1F
100
AcDbEntity
  8
0
  6
Continuous
 62
     7
370
    25
100
AcDbSpline
210
0.0
220
0.0
230
1.0
 70
     8
 71
     3
 72
     8
 73
     4
 74
     0
 42
0.00000001
 43
0.00000001
 40
0.0
 40
0.0
 40
0.0
 40
0.0
 40
1.0
 40
1.0
 40
1.0
 40
1.0
 10
3.068552360597951
 20
-0.2275694817715525
 30
0.0
 10
3.078910942848617
 20
-0.2067187165279406
 30
0.0
 10
3.088904134502867
 20
-0.1856654133876536
 30
0.0
 10
3.098
 20
-0.1642473373516871
 30
0.0
  0
SPLINE
  5
2B9
330
1F
100
AcDbEntity
  8
0
  6
Continuous
 62
     7
370
    25
100
AcDbSpline
210
0.0
220
0.0
230
1.0
 70
     8
 71
     3
 72
    14
 73
    10
 74
     0
 42
0.00000001
 43
0.00000001
 40
0.0
 40
0.0
 40
0.0
 40
0.0
 40
0.25
 40
0.25
 40
0.5
 40
0.5
 40
0.75
 40
0.75
 40
1.0
 40
1.0
 40
1.0
 40
1.0
 10
3.039947639402051
 20
-0.2275694817715521
 30
0.0
 10
3.041276424631811
 20
-0.2302441903575791
 30
0.0
 10
3.043223056302983
 20
-0.2326204117376743
 30
0.0
 10
3.048122266942908
 20
-0.2360374876086329
 30
0.0
 10
3.051142948390019
 20
-0.237074855550145
 30
0.0
 10
3.057312139125607
 20
-0.2370844414327829
 30
0.0
 10
3.060297482498686
 20
-0.2360817984990548
 30
0.0
 10
3.065274068178205
 20
-0.2326338858360696
 30
0.0
 10
3.067221578056846
 20
-0.2302482107415723
 30
0.0
 10
3.068552360598259
 20
-0.227569481771726
 30
0.0
  0
SPLINE
  5
2BA
330
1F
100
AcDbEntity
  8
0
  6
Continuous
 62
     7
370
    25
100
AcDbSpline
210
0.0
220
0.0
230
1.0
 70
     8
 71
     3
 72
     8
 73
     4
 74
     0
 42
0.00000001
 43
0.00000001
 40
0.0
 40
0.0
 40
0.0
 40
0.0
 40
1.0
 40
1.0
 40
1.0
 40
1.0
 10
3.0105
 20
-0.1642473373516873
 30
0.0
 10
3.019601602017729
 20
-0.1856789211989035
 30
0.0
 10
3.02958488577088
 20
-0.2067103199661774
 30
0.0
 10
3.039947639402051
 20
-0.2275694817715516
 30
0.0
  0
SPLINE
  5
2BC
330
1F
100
AcDbEntity
  8
0
  6
Continuous
 62
     7
370
    25
100
AcDbSpline
210
0.0
220
0.0
230
1.0
 70
     8
 71
     3
 72
     8
 73
     4
 74
     0
 42
0.00000001
 43
0.00000001
 40
0.0
 40
0.0
 40
0.0
 40
0.0
 40
1.0
 40
1.0
 40
1.0
 40
1.0
 10
2.968552360597951
 20
-0.2275694817715525
 30
0.0
 10
2.978910942848617
 20
-0.2067187165279406
 30
0.0
 10
2.988904134502867
 20
-0.1856654133876536
 30
0.0
 10
2.998
 20
-0.1642473373516871
 30
0.0
  0
SPLINE
  5
2BD
330
1F
100
AcDbEntity
  8
0
  6
Continuous
 62
     7
370
    25
100
AcDbSpline
210
0.0
220
0.0
230
1.0
 70
     8
 71
     3
 72
    14
 73
    10
 74
     0
 42
0.00000001
 43
0.00000001
 40
0.0
 40
0.0
 40
0.0
 40
0.0
 40
0.25
 40
0.25
 40
0.5
 40
0.5
 40
0.75
 40
0.75
 40
1.0
 40
1.0
 40
1.0
 40
1.0
 10
2.939947639402051
 20
-0.2275694817715521
 30
0.0
 10
2.941276424634899
 20
-0.2302441903637931
 30
0.0
 10
2.943223056312119
 20
-0.2326204117487355
 30
0.0
 10
2.94812226696792
 20
-0.2360374876213887
 30
0.0
 10
2.951142948310758
 20
-0.2370748555354957
 30
0.0
 10
2.957312139068752
 20
-0.2370844414472207
 30
0.0
 10
2.960297482458941
 20
-0.2360817985189742
 30
0.0
 10
2.965274068163049
 20
-0.2326338858541867
 30
0.0
 10
2.967221578051952
 20
-0.2302482107514227
 30
0.0
 10
2.968552360598259
 20
-0.227569481771726
 30
0.0
  0
SPLINE
  5
2BE
330
1F
100
AcDbEntity
  8
0
  6
Continuous
 62
     7
370
    25
100
AcDbSpline
210
0.0
220
0.0
230
1.0
 70
     8
 71
     3
 72
     8
 73
     4
 74
     0
 42
0.00000001
 43
0.00000001
 40
0.0
 40
0.0
 40
0.0
 40
0.0
 40
1.0
 40
1.0
 40
1.0
 40
1.0
 10
2.9105
 20
-0.1642473373516872
 30
0.0
 10
2.919601602017729
 20
-0.1856789211989035
 30
0.0
 10
2.929584885770879
 20
-0.2067103199661774
 30
0.0
 10
2.939947639402051
 20
-0.2275694817715516
 30
0.0
  0
SPLINE
  5
2C0
330
1F
100
AcDbEntity
  8
0
  6
Continuous
 62
     7
370
    25
100
AcDbSpline
210
0.0
220
0.0
230
1.0
 70
     8
 71
     3
 72
     8
 73
     4
 74
     0
 42
0.00000001
 43
0.00000001
 40
0.0
 40
0.0
 40
0.0
 40
0.0
 40
1.0
 40
1.0
 40
1.0
 40
1.0
 10
2.868552360597951
 20
-0.2275694817715525
 30
0.0
 10
2.878910942848617
 20
-0.2067187165279406
 30
0.0
 10
2.888904134502867
 20
-0.1856654133876536
 30
0.0
 10
2.898
 20
-0.1642473373516871
 30
0.0
  0
SPLINE
  5
2C1
330
1F
100
AcDbEntity
  8
0
  6
Continuous
 62
     7
370
    25
100
AcDbSpline
210
0.0
220
0.0
230
1.0
 70
     8
 71
     3
 72
    14
 73
    10
 74
     0
 42
0.00000001
 43
0.00000001
 40
0.0
 40
0.0
 40
0.0
 40
0.0
 40
0.25
 40
0.25
 40
0.5
 40
0.5
 40
0.75
 40
0.75
 40
1.0
 40
1.0
 40
1.0
 40
1.0
 10
2.839947639402051
 20
-0.2275694817715521
 30
0.0
 10
2.841276424631812
 20
-0.230244190357579
 30
0.0
 10
2.843223056302983
 20
-0.2326204117376744
 30
0.0
 10
2.848122266942907
 20
-0.236037487608633
 30
0.0
 10
2.851142948390018
 20
-0.237074855550145
 30
0.0
 10
2.857312139125606
 20
-0.2370844414327829
 30
0.0
 10
2.860297482498686
 20
-0.2360817984990549
 30
0.0
 10
2.865274068178204
 20
-0.2326338858360697
 30
0.0
 10
2.867221578056846
 20
-0.2302482107415723
 30
0.0
 10
2.868552360598259
 20
-0.227569481771726
 30
0.0
  0
SPLINE
  5
2C2
330
1F
100
AcDbEntity
  8
0
  6
Continuous
 62
     7
370
    25
100
AcDbSpline
210
0.0
220
0.0
230
1.0
 70
     8
 71
     3
 72
     8
 73
     4
 74
     0
 42
0.00000001
 43
0.00000001
 40
0.0
 40
0.0
 40
0.0
 40
0.0
 40
1.0
 40
1.0
 40
1.0
 40
1.0
 10
2.8105
 20
-0.1642473373516872
 30
0.0
 10
2.819601602017729
 20
-0.1856789211989035
 30
0.0
 10
2.829584885770879
 20
-0.2067103199661774
 30
0.0
 10
2.839947639402051
 20
-0.2275694817715516
 30
0.0
  0
SPLINE
  5
2C4
330
1F
100
AcDbEntity
  8
0
  6
Continuous
 62
     7
370
    25
100
AcDbSpline
210
0.0
220
0.0
230
1.0
 70
     8
 71
     3
 72
     8
 73
     4
 74
     0
 42
0.00000001
 43
0.00000001
 40
0.0
 40
0.0
 40
0.0
 40
0.0
 40
1.0
 40
1.0
 40
1.0
 40
1.0
 10
2.768552360597951
 20
-0.2275694817715525
 30
0.0
 10
2.778910942848617
 20
-0.2067187165279406
 30
0.0
 10
2.788904134502867
 20
-0.1856654133876536
 30
0.0
 10
2.798
 20
-0.1642473373516871
 30
0.0
  0
SPLINE
  5
2C5
330
1F
100
AcDbEntity
  8
0
  6
Continuous
 62
     7
370
    25
100
AcDbSpline
210
0.0
220
0.0
230
1.0
 70
     8
 71
     3
 72
    14
 73
    10
 74
     0
 42
0.00000001
 43
0.00000001
 40
0.0
 40
0.0
 40
0.0
 40
0.0
 40
0.25
 40
0.25
 40
0.5
 40
0.5
 40
0.75
 40
0.75
 40
1.0
 40
1.0
 40
1.0
 40
1.0
 10
2.739947639402051
 20
-0.2275694817715521
 30
0.0
 10
2.7412764246349
 20
-0.2302441903637933
 30
0.0
 10
2.743223056312118
 20
-0.2326204117487355
 30
0.0
 10
2.74812226696792
 20
-0.2360374876213886
 30
0.0
 10
2.751142948310757
 20
-0.2370748555354958
 30
0.0
 10
2.75731213906875
 20
-0.2370844414472207
 30
0.0
 10
2.76029748245894
 20
-0.2360817985189742
 30
0.0
 10
2.765274068163048
 20
-0.2326338858541867
 30
0.0
 10
2.767221578051952
 20
-0.2302482107514227
 30
0.0
 10
2.768552360598259
 20
-0.227569481771726
 30
0.0
  0
SPLINE
  5
2C6
330
1F
100
AcDbEntity
  8
0
  6
Continuous
 62
     7
370
    25
100
AcDbSpline
210
0.0
220
0.0
230
1.0
 70
     8
 71
     3
 72
     8
 73
     4
 74
     0
 42
0.00000001
 43
0.00000001
 40
0.0
 40
0.0
 40
0.0
 40
0.0
 40
1.0
 40
1.0
 40
1.0
 40
1.0
 10
2.7105
 20
-0.1642473373516872
 30
0.0
 10
2.719601602017729
 20
-0.1856789211989035
 30
0.0
 10
2.729584885770879
 20
-0.2067103199661774
 30
0.0
 10
2.739947639402051
 20
-0.2275694817715516
 30
0.0
  0
SPLINE
  5
2C8
330
1F
100
AcDbEntity
  8
0
  6
Continuous
 62
     7
370
    25
100
AcDbSpline
210
0.0
220
0.0
230
1.0
 70
     8
 71
     3
 72
     8
 73
     4
 74
     0
 42
0.00000001
 43
0.00000001
 40
0.0
 40
0.0
 40
0.0
 40
0.0
 40
1.0
 40
1.0
 40
1.0
 40
1.0
 10
2.668552360597951
 20
-0.2275694817715525
 30
0.0
 10
2.678910942848617
 20
-0.2067187165279406
 30
0.0
 10
2.688904134502867
 20
-0.1856654133876536
 30
0.0
 10
2.698
 20
-0.1642473373516871
 30
0.0
  0
SPLINE
  5
2C9
330
1F
100
AcDbEntity
  8
0
  6
Continuous
 62
     7
370
    25
100
AcDbSpline
210
0.0
220
0.0
230
1.0
 70
     8
 71
     3
 72
    14
 73
    10
 74
     0
 42
0.00000001
 43
0.00000001
 40
0.0
 40
0.0
 40
0.0
 40
0.0
 40
0.25
 40
0.25
 40
0.5
 40
0.5
 40
0.75
 40
0.75
 40
1.0
 40
1.0
 40
1.0
 40
1.0
 10
2.639947639402051
 20
-0.2275694817715521
 30
0.0
 10
2.641276424631812
 20
-0.230244190357579
 30
0.0
 10
2.643223056302983
 20
-0.2326204117376744
 30
0.0
 10
2.648122266942908
 20
-0.236037487608633
 30
0.0
 10
2.651142948390018
 20
-0.237074855550145
 30
0.0
 10
2.657312139125608
 20
-0.2370844414327829
 30
0.0
 10
2.660297482498686
 20
-0.2360817984990549
 30
0.0
 10
2.665274068178205
 20
-0.2326338858360697
 30
0.0
 10
2.667221578056846
 20
-0.2302482107415723
 30
0.0
 10
2.668552360598259
 20
-0.227569481771726
 30
0.0
  0
SPLINE
  5
2CA
330
1F
100
AcDbEntity
  8
0
  6
Continuous
 62
     7
370
    25
100
AcDbSpline
210
0.0
220
0.0
230
1.0
 70
     8
 71
     3
 72
     8
 73
     4
 74
     0
 42
0.00000001
 43
0.00000001
 40
0.0
 40
0.0
 40
0.0
 40
0.0
 40
1.0
 40
1.0
 40
1.0
 40
1.0
 10
2.6105
 20
-0.1642473373516873
 30
0.0
 10
2.619601602017729
 20
-0.1856789211989036
 30
0.0
 10
2.62958488577088
 20
-0.2067103199661774
 30
0.0
 10
2.639947639402051
 20
-0.2275694817715516
 30
0.0
  0
SPLINE
  5
2CC
330
1F
100
AcDbEntity
  8
0
  6
Continuous
 62
     7
370
    25
100
AcDbSpline
210
0.0
220
0.0
230
1.0
 70
     8
 71
     3
 72
     8
 73
     4
 74
     0
 42
0.00000001
 43
0.00000001
 40
0.0
 40
0.0
 40
0.0
 40
0.0
 40
1.0
 40
1.0
 40
1.0
 40
1.0
 10
2.568552360597951
 20
-0.2275694817715521
 30
0.0
 10
2.578910942848617
 20
-0.2067187165279403
 30
0.0
 10
2.588904134502867
 20
-0.1856654133876535
 30
0.0
 10
2.598
 20
-0.1642473373516871
 30
0.0
  0
SPLINE
  5
2CD
330
1F
100
AcDbEntity
  8
0
  6
Continuous
 62
     7
370
    25
100
AcDbSpline
210
0.0
220
0.0
230
1.0
 70
     8
 71
     3
 72
    14
 73
    10
 74
     0
 42
0.00000001
 43
0.00000001
 40
0.0
 40
0.0
 40
0.0
 40
0.0
 40
0.25
 40
0.25
 40
0.5
 40
0.5
 40
0.75
 40
0.75
 40
1.0
 40
1.0
 40
1.0
 40
1.0
 10
2.539947639402051
 20
-0.2275694817715521
 30
0.0
 10
2.5412764246349
 20
-0.2302441903637933
 30
0.0
 10
2.543223056312118
 20
-0.2326204117487355
 30
0.0
 10
2.54812226696792
 20
-0.2360374876213886
 30
0.0
 10
2.551142948310757
 20
-0.2370748555354958
 30
0.0
 10
2.557312139068751
 20
-0.2370844414472207
 30
0.0
 10
2.56029748245894
 20
-0.2360817985189742
 30
0.0
 10
2.565274068163049
 20
-0.2326338858541867
 30
0.0
 10
2.567221578051952
 20
-0.2302482107514227
 30
0.0
 10
2.568552360598259
 20
-0.227569481771726
 30
0.0
  0
SPLINE
  5
2CE
330
1F
100
AcDbEntity
  8
0
  6
Continuous
 62
     7
370
    25
100
AcDbSpline
210
0.0
220
0.0
230
1.0
 70
     8
 71
     3
 72
     8
 73
     4
 74
     0
 42
0.00000001
 43
0.00000001
 40
0.0
 40
0.0
 40
0.0
 40
0.0
 40
1.0
 40
1.0
 40
1.0
 40
1.0
 10
2.5105
 20
-0.1642473373516873
 30
0.0
 10
2.519601602017729
 20
-0.1856789211989036
 30
0.0
 10
2.52958488577088
 20
-0.2067103199661774
 30
0.0
 10
2.539947639402051
 20
-0.2275694817715516
 30
0.0
  0
SPLINE
  5
2D0
330
1F
100
AcDbEntity
  8
0
  6
Continuous
 62
     7
370
    25
100
AcDbSpline
210
0.0
220
0.0
230
1.0
 70
     8
 71
     3
 72
     8
 73
     4
 74
     0
 42
0.00000001
 43
0.00000001
 40
0.0
 40
0.0
 40
0.0
 40
0.0
 40
1.0
 40
1.0
 40
1.0
 40
1.0
 10
2.468552360597951
 20
-0.2275694817715525
 30
0.0
 10
2.478910942848617
 20
-0.2067187165279406
 30
0.0
 10
2.488904134502867
 20
-0.1856654133876538
 30
0.0
 10
2.498
 20
-0.1642473373516873
 30
0.0
  0
SPLINE
  5
2D1
330
1F
100
AcDbEntity
  8
0
  6
Continuous
 62
     7
370
    25
100
AcDbSpline
210
0.0
220
0.0
230
1.0
 70
     8
 71
     3
 72
    14
 73
    10
 74
     0
 42
0.00000001
 43
0.00000001
 40
0.0
 40
0.0
 40
0.0
 40
0.0
 40
0.2500000000000046
 40
0.2500000000000046
 40
0.5000000000000091
 40
0.5000000000000091
 40
0.7500000000000137
 40
0.7500000000000137
 40
1.0
 40
1.0
 40
1.0
 40
1.0
 10
2.439947639402051
 20
-0.2275694817715522
 30
0.0
 10
2.441276424631812
 20
-0.2302441903575793
 30
0.0
 10
2.443223056302982
 20
-0.2326204117376745
 30
0.0
 10
2.448122266942908
 20
-0.2360374876086331
 30
0.0
 10
2.451142948390018
 20
-0.2370748555501449
 30
0.0
 10
2.457312139125606
 20
-0.237084441432783
 30
0.0
 10
2.460297482498685
 20
-0.2360817984990548
 30
0.0
 10
2.465274068178204
 20
-0.2326338858360697
 30
0.0
 10
2.467221578056845
 20
-0.2302482107415723
 30
0.0
 10
2.468552360598259
 20
-0.227569481771726
 30
0.0
  0
SPLINE
  5
2D2
330
1F
100
AcDbEntity
  8
0
  6
Continuous
 62
     7
370
    25
100
AcDbSpline
210
0.0
220
0.0
230
1.0
 70
     8
 71
     3
 72
     8
 73
     4
 74
     0
 42
0.00000001
 43
0.00000001
 40
0.0
 40
0.0
 40
0.0
 40
0.0
 40
1.0
 40
1.0
 40
1.0
 40
1.0
 10
2.4105
 20
-0.1642473373516873
 30
0.0
 10
2.419601602017729
 20
-0.1856789211989035
 30
0.0
 10
2.429584885770879
 20
-0.2067103199661774
 30
0.0
 10
2.439947639402051
 20
-0.2275694817715516
 30
0.0
  0
SPLINE
  5
2D8
330
1F
100
AcDbEntity
  8
0
  6
Continuous
 62
     7
370
    25
100
AcDbSpline
210
0.0
220
0.0
230
1.0
 70
     8
 71
     3
 72
     8
 73
     4
 74
     0
 42
0.00000001
 43
0.00000001
 40
0.0
 40
0.0
 40
0.0
 40
0.0
 40
1.0
 40
1.0
 40
1.0
 40
1.0
 10
2.398
 20
-0.187674540466432
 30
0.0
 10
2.388193064025994
 20
-0.2048189687909951
 30
0.0
 10
2.378375268734766
 20
-0.2219572051033837
 30
0.0
 10
2.36855236059795
 20
-0.2390925059482558
 30
0.0
  0
SPLINE
  5
2DA
330
1F
100
AcDbEntity
  8
0
  6
Continuous
 62
     7
370
    25
100
AcDbSpline
210
0.0
220
0.0
230
1.0
 70
     8
 71
     3
 72
     8
 73
     4
 74
     0
 42
0.00000001
 43
0.00000001
 40
0.0
 40
0.0
 40
0.0
 40
0.0
 40
1.0
 40
1.0
 40
1.0
 40
1.0
 10
2.439947639402051
 20
-0.2390925059482555
 30
0.0
 10
2.430124723823129
 20
-0.2219571921212069
 30
0.0
 10
2.420306920580625
 20
-0.2048189418803751
 30
0.0
 10
2.4105
 20
-0.1876745404664321
 30
0.0
  0
SPLINE
  5
2DF
330
1F
100
AcDbEntity
  8
0
  6
Continuous
 62
     7
370
    25
100
AcDbSpline
210
0.0
220
0.0
230
1.0
 70
     8
 71
     3
 72
     8
 73
     4
 74
     0
 42
0.00000001
 43
0.00000001
 40
0.0
 40
0.0
 40
0.0
 40
0.0
 40
1.0
 40
1.0
 40
1.0
 40
1.0
 10
2.639947639402051
 20
-0.2390925059482554
 30
0.0
 10
2.630124723823129
 20
-0.2219571921212068
 30
0.0
 10
2.620306920580625
 20
-0.2048189418803752
 30
0.0
 10
2.6105
 20
-0.1876745404664322
 30
0.0
  0
SPLINE
  5
2E4
330
1F
100
AcDbEntity
  8
0
  6
Continuous
 62
     7
370
    25
100
AcDbSpline
210
0.0
220
0.0
230
1.0
 70
     8
 71
     3
 72
     8
 73
     4
 74
     0
 42
0.00000001
 43
0.00000001
 40
0.0
 40
0.0
 40
0.0
 40
0.0
 40
1.0
 40
1.0
 40
1.0
 40
1.0
 10
2.739947639402051
 20
-0.2390925059482552
 30
0.0
 10
2.730124723823129
 20
-0.2219571921212067
 30
0.0
 10
2.720306920580625
 20
-0.2048189418803751
 30
0.0
 10
2.7105
 20
-0.1876745404664321
 30
0.0
  0
SPLINE
  5
2EC
330
1F
100
AcDbEntity
  8
0
  6
Continuous
 62
     7
370
    25
100
AcDbSpline
210
0.0
220
0.0
230
1.0
 70
     8
 71
     3
 72
     8
 73
     4
 74
     0
 42
0.00000001
 43
0.00000001
 40
0.0
 40
0.0
 40
0.0
 40
0.0
 40
1.0
 40
1.0
 40
1.0
 40
1.0
 10
2.539947639402051
 20
-0.2390925059482552
 30
0.0
 10
2.530124723823129
 20
-0.2219571921212066
 30
0.0
 10
2.520306920580625
 20
-0.2048189418803749
 30
0.0
 10
2.5105
 20
-0.187674540466432
 30
0.0
  0
SPLINE
  5
2F4
330
1F
100
AcDbEntity
  8
0
  6
Continuous
 62
     7
370
    25
100
AcDbSpline
210
0.0
220
0.0
230
1.0
 70
     8
 71
     3
 72
     8
 73
     4
 74
     0
 42
0.00000001
 43
0.00000001
 40
0.0
 40
0.0
 40
0.0
 40
0.0
 40
1.0
 40
1.0
 40
1.0
 40
1.0
 10
3.139947639402052
 20
-0.2390925059482552
 30
0.0
 10
3.130124723823129
 20
-0.2219571921212066
 30
0.0
 10
3.120306920580625
 20
-0.2048189418803749
 30
0.0
 10
3.1105
 20
-0.1876745404664319
 30
0.0
  0
SPLINE
  5
2F6
330
1F
100
AcDbEntity
  8
0
  6
Continuous
 62
     7
370
    25
100
AcDbSpline
210
0.0
220
0.0
230
1.0
 70
     8
 71
     3
 72
     8
 73
     4
 74
     0
 42
0.00000001
 43
0.00000001
 40
0.0
 40
0.0
 40
0.0
 40
0.0
 40
1.0
 40
1.0
 40
1.0
 40
1.0
 10
3.039947639402051
 20
-0.2390925059482554
 30
0.0
 10
3.030124723823129
 20
-0.2219571921212068
 30
0.0
 10
3.020306920580625
 20
-0.2048189418803752
 30
0.0
 10
3.0105
 20
-0.1876745404664322
 30
0.0
  0
SPLINE
  5
2F8
330
1F
100
AcDbEntity
  8
0
  6
Continuous
 62
     7
370
    25
100
AcDbSpline
210
0.0
220
0.0
230
1.0
 70
     8
 71
     3
 72
     8
 73
     4
 74
     0
 42
0.00000001
 43
0.00000001
 40
0.0
 40
0.0
 40
0.0
 40
0.0
 40
1.0
 40
1.0
 40
1.0
 40
1.0
 10
2.939947639402051
 20
-0.2390925059482552
 30
0.0
 10
2.930124723823129
 20
-0.2219571921212067
 30
0.0
 10
2.920306920580625
 20
-0.2048189418803751
 30
0.0
 10
2.9105
 20
-0.1876745404664321
 30
0.0
  0
SPLINE
  5
2FD
330
1F
100
AcDbEntity
  8
0
  6
Continuous
 62
     7
370
    25
100
AcDbSpline
210
0.0
220
0.0
230
1.0
 70
     8
 71
     3
 72
     8
 73
     4
 74
     0
 42
0.00000001
 43
0.00000001
 40
0.0
 40
0.0
 40
0.0
 40
0.0
 40
1.0
 40
1.0
 40
1.0
 40
1.0
 10
2.839947639402051
 20
-0.2390925059482554
 30
0.0
 10
2.830124723823129
 20
-0.2219571921212068
 30
0.0
 10
2.820306920580625
 20
-0.2048189418803752
 30
0.0
 10
2.8105
 20
-0.1876745404664322
 30
0.0
  0
SPLINE
  5
2FF
330
1F
100
AcDbEntity
  8
0
  6
Continuous
 62
     7
370
    25
100
AcDbSpline
210
0.0
220
0.0
230
1.0
 70
     8
 71
     3
 72
     8
 73
     4
 74
     0
 42
0.00000001
 43
0.00000001
 40
0.0
 40
0.0
 40
0.0
 40
0.0
 40
1.0
 40
1.0
 40
1.0
 40
1.0
 10
3.239947639402051
 20
-0.2390925059482554
 30
0.0
 10
3.230124723823129
 20
-0.2219571921212068
 30
0.0
 10
3.220306920580625
 20
-0.2048189418803752
 30
0.0
 10
3.2105
 20
-0.1876745404664322
 30
0.0
  0
SPLINE
  5
305
330
1F
100
AcDbEntity
  8
0
  6
Continuous
 62
     7
370
    25
100
AcDbSpline
210
0.0
220
0.0
230
1.0
 70
     8
 71
     3
 72
     8
 73
     4
 74
     0
 42
0.00000001
 43
0.00000001
 40
0.0
 40
0.0
 40
0.0
 40
0.0
 40
1.0
 40
1.0
 40
1.0
 40
1.0
 10
3.339947639402051
 20
-0.2390925059482552
 30
0.0
 10
3.330124723823129
 20
-0.2219571921212066
 30
0.0
 10
3.320306920580625
 20
-0.204818941880375
 30
0.0
 10
3.3105
 20
-0.187674540466432
 30
0.0
  0
SPLINE
  5
309
330
1F
100
AcDbEntity
  8
0
  6
Continuous
 62
     7
370
    25
100
AcDbSpline
210
0.0
220
0.0
230
1.0
 70
     8
 71
     3
 72
     8
 73
     4
 74
     0
 42
0.00000001
 43
0.00000001
 40
0.0
 40
0.0
 40
0.0
 40
0.0
 40
1.0
 40
1.0
 40
1.0
 40
1.0
 10
2.498
 20
-0.1876745404664322
 30
0.0
 10
2.488193064025994
 20
-0.2048189687909951
 30
0.0
 10
2.478375268734766
 20
-0.2219572051033836
 30
0.0
 10
2.46855236059795
 20
-0.2390925059482557
 30
0.0
  0
SPLINE
  5
30B
330
1F
100
AcDbEntity
  8
0
  6
Continuous
 62
     7
370
    25
100
AcDbSpline
210
0.0
220
0.0
230
1.0
 70
     8
 71
     3
 72
     8
 73
     4
 74
     0
 42
0.00000001
 43
0.00000001
 40
0.0
 40
0.0
 40
0.0
 40
0.0
 40
1.0
 40
1.0
 40
1.0
 40
1.0
 10
2.598
 20
-0.1876745404664322
 30
0.0
 10
2.588193064025994
 20
-0.2048189687909952
 30
0.0
 10
2.578375268734766
 20
-0.2219572051033837
 30
0.0
 10
2.56855236059795
 20
-0.2390925059482557
 30
0.0
  0
SPLINE
  5
30D
330
1F
100
AcDbEntity
  8
0
  6
Continuous
 62
     7
370
    25
100
AcDbSpline
210
0.0
220
0.0
230
1.0
 70
     8
 71
     3
 72
     8
 73
     4
 74
     0
 42
0.00000001
 43
0.00000001
 40
0.0
 40
0.0
 40
0.0
 40
0.0
 40
1.0
 40
1.0
 40
1.0
 40
1.0
 10
2.698
 20
-0.1876745404664322
 30
0.0
 10
2.688193064025994
 20
-0.2048189687909952
 30
0.0
 10
2.678375268734766
 20
-0.2219572051033836
 30
0.0
 10
2.66855236059795
 20
-0.2390925059482557
 30
0.0
  0
SPLINE
  5
30F
330
1F
100
AcDbEntity
  8
0
  6
Continuous
 62
     7
370
    25
100
AcDbSpline
210
0.0
220
0.0
230
1.0
 70
     8
 71
     3
 72
     8
 73
     4
 74
     0
 42
0.00000001
 43
0.00000001
 40
0.0
 40
0.0
 40
0.0
 40
0.0
 40
1.0
 40
1.0
 40
1.0
 40
1.0
 10
2.898
 20
-0.1876745404664322
 30
0.0
 10
2.888193064025994
 20
-0.2048189687909952
 30
0.0
 10
2.878375268734766
 20
-0.2219572051033837
 30
0.0
 10
2.86855236059795
 20
-0.2390925059482557
 30
0.0
  0
SPLINE
  5
311
330
1F
100
AcDbEntity
  8
0
  6
Continuous
 62
     7
370
    25
100
AcDbSpline
210
0.0
220
0.0
230
1.0
 70
     8
 71
     3
 72
     8
 73
     4
 74
     0
 42
0.00000001
 43
0.00000001
 40
0.0
 40
0.0
 40
0.0
 40
0.0
 40
1.0
 40
1.0
 40
1.0
 40
1.0
 10
3.298
 20
-0.1876745404664322
 30
0.0
 10
3.288193064025994
 20
-0.2048189687909952
 30
0.0
 10
3.278375268734766
 20
-0.2219572051033836
 30
0.0
 10
3.26855236059795
 20
-0.2390925059482557
 30
0.0
  0
SPLINE
  5
313
330
1F
100
AcDbEntity
  8
0
  6
Continuous
 62
     7
370
    25
100
AcDbSpline
210
0.0
220
0.0
230
1.0
 70
     8
 71
     3
 72
     8
 73
     4
 74
     0
 42
0.00000001
 43
0.00000001
 40
0.0
 40
0.0
 40
0.0
 40
0.0
 40
1.0
 40
1.0
 40
1.0
 40
1.0
 10
2.798
 20
-0.1876745404664322
 30
0.0
 10
2.788193064025994
 20
-0.2048189687909952
 30
0.0
 10
2.778375268734766
 20
-0.2219572051033836
 30
0.0
 10
2.76855236059795
 20
-0.2390925059482557
 30
0.0
  0
SPLINE
  5
315
330
1F
100
AcDbEntity
  8
0
  6
Continuous
 62
     7
370
    25
100
AcDbSpline
210
0.0
220
0.0
230
1.0
 70
     8
 71
     3
 72
     8
 73
     4
 74
     0
 42
0.00000001
 43
0.00000001
 40
0.0
 40
0.0
 40
0.0
 40
0.0
 40
1.0
 40
1.0
 40
1.0
 40
1.0
 10
3.198
 20
-0.1876745404664322
 30
0.0
 10
3.188193064025994
 20
-0.2048189687909952
 30
0.0
 10
3.178375268734766
 20
-0.2219572051033836
 30
0.0
 10
3.168552360597951
 20
-0.2390925059482557
 30
0.0
  0
SPLINE
  5
31A
330
1F
100
AcDbEntity
  8
0
  6
Continuous
 62
     7
370
    25
100
AcDbSpline
210
0.0
220
0.0
230
1.0
 70
     8
 71
     3
 72
     8
 73
     4
 74
     0
 42
0.00000001
 43
0.00000001
 40
0.0
 40
0.0
 40
0.0
 40
0.0
 40
1.0
 40
1.0
 40
1.0
 40
1.0
 10
3.098
 20
-0.1876745404664322
 30
0.0
 10
3.088193064025994
 20
-0.2048189687909952
 30
0.0
 10
3.078375268734766
 20
-0.2219572051033836
 30
0.0
 10
3.068552360597951
 20
-0.2390925059482557
 30
0.0
  0
SPLINE
  5
31C
330
1F
100
AcDbEntity
  8
0
  6
Continuous
 62
     7
370
    25
100
AcDbSpline
210
0.0
220
0.0
230
1.0
 70
     8
 71
     3
 72
     8
 73
     4
 74
     0
 42
0.00000001
 43
0.00000001
 40
0.0
 40
0.0
 40
0.0
 40
0.0
 40
1.0
 40
1.0
 40
1.0
 40
1.0
 10
3.398
 20
-0.1876745404664322
 30
0.0
 10
3.388193064025995
 20
-0.2048189687909952
 30
0.0
 10
3.378375268734766
 20
-0.2219572051033836
 30
0.0
 10
3.36855236059795
 20
-0.2390925059482557
 30
0.0
  0
SPLINE
  5
31E
330
1F
100
AcDbEntity
  8
0
  6
Continuous
 62
     7
370
    25
100
AcDbSpline
210
0.0
220
0.0
230
1.0
 70
     8
 71
     3
 72
     8
 73
     4
 74
     0
 42
0.00000001
 43
0.00000001
 40
0.0
 40
0.0
 40
0.0
 40
0.0
 40
1.0
 40
1.0
 40
1.0
 40
1.0
 10
2.998
 20
-0.1876745404664322
 30
0.0
 10
2.988193064025994
 20
-0.2048189687909952
 30
0.0
 10
2.978375268734766
 20
-0.2219572051033836
 30
0.0
 10
2.96855236059795
 20
-0.2390925059482557
 30
0.0
  0
SPLINE
  5
320
330
1F
100
AcDbEntity
  8
0
  6
Continuous
 62
     7
370
    25
100
AcDbSpline
210
0.0
220
0.0
230
1.0
 70
     8
 71
     3
 72
    10
 73
     6
 74
     0
 42
0.00000001
 43
0.00000001
 40
0.0
 40
0.0
 40
0.0
 40
0.0
 40
0.5
 40
0.5
 40
1.0
 40
1.0
 40
1.0
 40
1.0
 10
2.36855236059795
 20
-0.2390925059482557
 30
0.0
 10
2.367119353743839
 20
-0.2415922751831872
 30
0.0
 10
2.365003227626111
 20
-0.2437240910269939
 30
0.0
 10
2.360004432537242
 20
-0.2466215262506468
 30
0.0
 10
2.357130547561601
 20
-0.247392885912268
 30
0.0
 10
2.35425
 20
-0.2473928859122679
 30
0.0
  0
SPLINE
  5
321
330
1F
100
AcDbEntity
  8
0
  6
Continuous
 62
     7
370
    25
100
AcDbSpline
210
0.0
220
0.0
230
1.0
 70
     8
 71
     3
 72
    14
 73
    10
 74
     0
 42
0.00000001
 43
0.00000001
 40
0.0
 40
0.0
 40
0.0
 40
0.0
 40
0.25
 40
0.25
 40
0.5
 40
0.5
 40
0.75
 40
0.75
 40
1.0
 40
1.0
 40
1.0
 40
1.0
 10
3.36855236059795
 20
-0.2390925059482558
 30
0.0
 10
3.367118967520488
 20
-0.2415929489198456
 30
0.0
 10
3.365002046806065
 20
-0.2437252485280157
 30
0.0
 10
3.3600015714038
 20
-0.2466227111913297
 30
0.0
 10
3.357126730028952
 20
-0.2473937013722235
 30
0.0
 10
3.351363953500737
 20
-0.2473920691329215
 30
0.0
 10
3.348462391044233
 20
-0.2466075686458834
 30
0.0
 10
3.343484575516617
 20
-0.2437117008129619
 30
0.0
 10
3.341386310994059
 20
-0.2416021568787813
 30
0.0
 10
3.339947639402051
 20
-0.2390925059482558
 30
0.0
  0
SPLINE
  5
322
330
1F
100
AcDbEntity
  8
0
  6
Continuous
 62
     7
370
    25
100
AcDbSpline
210
0.0
220
0.0
230
1.0
 70
     8
 71
     3
 72
    14
 73
    10
 74
     0
 42
0.00000001
 43
0.00000001
 40
0.0
 40
0.0
 40
0.0
 40
0.0
 40
0.25
 40
0.25
 40
0.5
 40
0.5
 40
0.75
 40
0.75
 40
1.0
 40
1.0
 40
1.0
 40
1.0
 10
3.168552360597951
 20
-0.2390925059482558
 30
0.0
 10
3.167118967520488
 20
-0.2415929489198456
 30
0.0
 10
3.165002046806065
 20
-0.2437252485280157
 30
0.0
 10
3.1600015714038
 20
-0.2466227111913297
 30
0.0
 10
3.157126730028951
 20
-0.2473937013722235
 30
0.0
 10
3.151363953500737
 20
-0.2473920691329215
 30
0.0
 10
3.148462391044234
 20
-0.2466075686458834
 30
0.0
 10
3.143484575516617
 20
-0.2437117008129619
 30
0.0
 10
3.141386310994059
 20
-0.2416021568787813
 30
0.0
 10
3.139947639402051
 20
-0.2390925059482558
 30
0.0
  0
SPLINE
  5
323
330
1F
100
AcDbEntity
  8
0
  6
Continuous
 62
     7
370
    25
100
AcDbSpline
210
0.0
220
0.0
230
1.0
 70
     8
 71
     3
 72
    14
 73
    10
 74
     0
 42
0.00000001
 43
0.00000001
 40
0.0
 40
0.0
 40
0.0
 40
0.0
 40
0.25
 40
0.25
 40
0.5
 40
0.5
 40
0.75
 40
0.75
 40
1.0
 40
1.0
 40
1.0
 40
1.0
 10
3.26855236059795
 20
-0.2390925059482555
 30
0.0
 10
3.267118967520488
 20
-0.2415929489198454
 30
0.0
 10
3.265002046806065
 20
-0.2437252485280153
 30
0.0
 10
3.260001571403801
 20
-0.2466227111913295
 30
0.0
 10
3.257126730028952
 20
-0.2473937013722235
 30
0.0
 10
3.251363953500736
 20
-0.2473920691329215
 30
0.0
 10
3.248462391044234
 20
-0.2466075686458835
 30
0.0
 10
3.243484575516618
 20
-0.2437117008129621
 30
0.0
 10
3.24138631099406
 20
-0.2416021568787815
 30
0.0
 10
3.239947639402051
 20
-0.239092505948256
 30
0.0
  0
SPLINE
  5
324
330
1F
100
AcDbEntity
  8
0
  6
Continuous
 62
     7
370
    25
100
AcDbSpline
210
0.0
220
0.0
230
1.0
 70
     8
 71
     3
 72
    14
 73
    10
 74
     0
 42
0.00000001
 43
0.00000001
 40
0.0
 40
0.0
 40
0.0
 40
0.0
 40
0.25
 40
0.25
 40
0.5
 40
0.5
 40
0.75
 40
0.75
 40
1.0
 40
1.0
 40
1.0
 40
1.0
 10
2.46855236059795
 20
-0.2390925059482555
 30
0.0
 10
2.467118967520488
 20
-0.2415929489198454
 30
0.0
 10
2.465002046806065
 20
-0.2437252485280153
 30
0.0
 10
2.460001571403801
 20
-0.2466227111913296
 30
0.0
 10
2.457126730028952
 20
-0.2473937013722236
 30
0.0
 10
2.451363953500736
 20
-0.2473920691329215
 30
0.0
 10
2.448462391044234
 20
-0.2466075686458834
 30
0.0
 10
2.443484575516616
 20
-0.2437117008129618
 30
0.0
 10
2.441386310994059
 20
-0.2416021568787814
 30
0.0
 10
2.439947639402051
 20
-0.2390925059482558
 30
0.0
  0
SPLINE
  5
325
330
1F
100
AcDbEntity
  8
0
  6
Continuous
 62
     7
370
    25
100
AcDbSpline
210
0.0
220
0.0
230
1.0
 70
     8
 71
     3
 72
    14
 73
    10
 74
     0
 42
0.00000001
 43
0.00000001
 40
0.0
 40
0.0
 40
0.0
 40
0.0
 40
0.25
 40
0.25
 40
0.5
 40
0.5
 40
0.75
 40
0.75
 40
1.0
 40
1.0
 40
1.0
 40
1.0
 10
2.86855236059795
 20
-0.2390925059482555
 30
0.0
 10
2.867118967520487
 20
-0.2415929489198454
 30
0.0
 10
2.865002046806066
 20
-0.2437252485280154
 30
0.0
 10
2.860001571403801
 20
-0.2466227111913296
 30
0.0
 10
2.857126730028952
 20
-0.2473937013722236
 30
0.0
 10
2.851363953500736
 20
-0.2473920691329215
 30
0.0
 10
2.848462391044234
 20
-0.2466075686458835
 30
0.0
 10
2.843484575516616
 20
-0.2437117008129621
 30
0.0
 10
2.841386310994059
 20
-0.2416021568787816
 30
0.0
 10
2.839947639402051
 20
-0.239092505948256
 30
0.0
  0
SPLINE
  5
326
330
1F
100
AcDbEntity
  8
0
  6
Continuous
 62
     7
370
    25
100
AcDbSpline
210
0.0
220
0.0
230
1.0
 70
     8
 71
     3
 72
    14
 73
    10
 74
     0
 42
0.00000001
 43
0.00000001
 40
0.0
 40
0.0
 40
0.0
 40
0.0
 40
0.25
 40
0.25
 40
0.5
 40
0.5
 40
0.75
 40
0.75
 40
1.0
 40
1.0
 40
1.0
 40
1.0
 10
2.66855236059795
 20
-0.2390925059482555
 30
0.0
 10
2.667118967520488
 20
-0.2415929489198454
 30
0.0
 10
2.665002046806065
 20
-0.2437252485280154
 30
0.0
 10
2.6600015714038
 20
-0.2466227111913296
 30
0.0
 10
2.657126730028952
 20
-0.2473937013722236
 30
0.0
 10
2.651363953500736
 20
-0.2473920691329215
 30
0.0
 10
2.648462391044235
 20
-0.2466075686458835
 30
0.0
 10
2.643484575516617
 20
-0.2437117008129621
 30
0.0
 10
2.641386310994059
 20
-0.2416021568787816
 30
0.0
 10
2.639947639402051
 20
-0.239092505948256
 30
0.0
  0
SPLINE
  5
327
330
1F
100
AcDbEntity
  8
0
  6
Continuous
 62
     7
370
    25
100
AcDbSpline
210
0.0
220
0.0
230
1.0
 70
     8
 71
     3
 72
    14
 73
    10
 74
     0
 42
0.00000001
 43
0.00000001
 40
0.0
 40
0.0
 40
0.0
 40
0.0
 40
0.25
 40
0.25
 40
0.5
 40
0.5
 40
0.75
 40
0.75
 40
1.0
 40
1.0
 40
1.0
 40
1.0
 10
2.56855236059795
 20
-0.2390925059482558
 30
0.0
 10
2.567118967520488
 20
-0.2415929489198455
 30
0.0
 10
2.565002046806065
 20
-0.2437252485280154
 30
0.0
 10
2.5600015714038
 20
-0.2466227111913294
 30
0.0
 10
2.557126730028952
 20
-0.2473937013722236
 30
0.0
 10
2.551363953500736
 20
-0.2473920691329215
 30
0.0
 10
2.548462391044233
 20
-0.2466075686458834
 30
0.0
 10
2.543484575516617
 20
-0.243711700812962
 30
0.0
 10
2.541386310994059
 20
-0.2416021568787814
 30
0.0
 10
2.539947639402051
 20
-0.2390925059482558
 30
0.0
  0
SPLINE
  5
328
330
1F
100
AcDbEntity
  8
0
  6
Continuous
 62
     7
370
    25
100
AcDbSpline
210
0.0
220
0.0
230
1.0
 70
     8
 71
     3
 72
    14
 73
    10
 74
     0
 42
0.00000001
 43
0.00000001
 40
0.0
 40
0.0
 40
0.0
 40
0.0
 40
0.25
 40
0.25
 40
0.5
 40
0.5
 40
0.75
 40
0.75
 40
1.0
 40
1.0
 40
1.0
 40
1.0
 10
2.96855236059795
 20
-0.2390925059482558
 30
0.0
 10
2.967118967520488
 20
-0.2415929489198456
 30
0.0
 10
2.965002046806065
 20
-0.2437252485280154
 30
0.0
 10
2.9600015714038
 20
-0.2466227111913294
 30
0.0
 10
2.957126730028952
 20
-0.2473937013722235
 30
0.0
 10
2.951363953500736
 20
-0.2473920691329215
 30
0.0
 10
2.948462391044234
 20
-0.2466075686458834
 30
0.0
 10
2.943484575516617
 20
-0.2437117008129619
 30
0.0
 10
2.941386310994059
 20
-0.2416021568787813
 30
0.0
 10
2.939947639402051
 20
-0.2390925059482558
 30
0.0
  0
SPLINE
  5
329
330
1F
100
AcDbEntity
  8
0
  6
Continuous
 62
     7
370
    25
100
AcDbSpline
210
0.0
220
0.0
230
1.0
 70
     8
 71
     3
 72
    14
 73
    10
 74
     0
 42
0.00000001
 43
0.00000001
 40
0.0
 40
0.0
 40
0.0
 40
0.0
 40
0.25
 40
0.25
 40
0.5
 40
0.5
 40
0.75
 40
0.75
 40
1.0
 40
1.0
 40
1.0
 40
1.0
 10
2.76855236059795
 20
-0.2390925059482558
 30
0.0
 10
2.767118967520488
 20
-0.2415929489198455
 30
0.0
 10
2.765002046806065
 20
-0.2437252485280154
 30
0.0
 10
2.760001571403799
 20
-0.2466227111913294
 30
0.0
 10
2.757126730028951
 20
-0.2473937013722236
 30
0.0
 10
2.751363953500737
 20
-0.2473920691329215
 30
0.0
 10
2.748462391044233
 20
-0.2466075686458834
 30
0.0
 10
2.743484575516617
 20
-0.243711700812962
 30
0.0
 10
2.741386310994059
 20
-0.2416021568787814
 30
0.0
 10
2.739947639402051
 20
-0.2390925059482558
 30
0.0
  0
SPLINE
  5
32A
330
1F
100
AcDbEntity
  8
0
  6
Continuous
 62
     7
370
    25
100
AcDbSpline
210
0.0
220
0.0
230
1.0
 70
     8
 71
     3
 72
    14
 73
    10
 74
     0
 42
0.00000001
 43
0.00000001
 40
0.0
 40
0.0
 40
0.0
 40
0.0
 40
0.25
 40
0.25
 40
0.5
 40
0.5
 40
0.75
 40
0.75
 40
1.0
 40
1.0
 40
1.0
 40
1.0
 10
3.068552360597951
 20
-0.2390925059482555
 30
0.0
 10
3.067118967520488
 20
-0.2415929489198454
 30
0.0
 10
3.065002046806065
 20
-0.2437252485280153
 30
0.0
 10
3.0600015714038
 20
-0.2466227111913295
 30
0.0
 10
3.057126730028953
 20
-0.2473937013722235
 30
0.0
 10
3.051363953500736
 20
-0.2473920691329215
 30
0.0
 10
3.048462391044235
 20
-0.2466075686458835
 30
0.0
 10
3.043484575516618
 20
-0.2437117008129621
 30
0.0
 10
3.041386310994059
 20
-0.2416021568787815
 30
0.0
 10
3.039947639402051
 20
-0.239092505948256
 30
0.0
  0
SPLINE
  5
32D
330
1F
100
AcDbEntity
  8
0
  6
Continuous
 62
     7
370
    25
100
AcDbSpline
210
0.0
220
0.0
230
1.0
 70
     8
 71
     3
 72
     8
 73
     4
 74
     0
 42
0.00000001
 43
0.00000001
 40
0.0
 40
0.0
 40
0.0
 40
0.0
 40
1.0
 40
1.0
 40
1.0
 40
1.0
 10
2.439947639402051
 20
0.2390925059482556
 30
0.0
 10
2.430124735604218
 20
0.2219572126724029
 30
0.0
 10
2.4203069422174
 20
0.2048189797056586
 30
0.0
 10
2.4105
 20
0.1876745404664321
 30
0.0
  0
SPLINE
  5
338
330
1F
100
AcDbEntity
  8
0
  6
Continuous
 62
     7
370
    25
100
AcDbSpline
210
0.0
220
0.0
230
1.0
 70
     8
 71
     3
 72
     8
 73
     4
 74
     0
 42
0.00000001
 43
0.00000001
 40
0.0
 40
0.0
 40
0.0
 40
0.0
 40
1.0
 40
1.0
 40
1.0
 40
1.0
 10
3.139947639402052
 20
0.2390925059482555
 30
0.0
 10
3.130124735604218
 20
0.2219572126724028
 30
0.0
 10
3.1203069422174
 20
0.2048189797056587
 30
0.0
 10
3.1105
 20
0.1876745404664322
 30
0.0
  0
SPLINE
  5
339
330
1F
100
AcDbEntity
  8
0
  6
Continuous
 62
     7
370
    25
100
AcDbSpline
210
0.0
220
0.0
230
1.0
 70
     8
 71
     3
 72
     8
 73
     4
 74
     0
 42
0.00000001
 43
0.00000001
 40
0.0
 40
0.0
 40
0.0
 40
0.0
 40
1.0
 40
1.0
 40
1.0
 40
1.0
 10
3.239947639402051
 20
0.2390925059482554
 30
0.0
 10
3.230124735604218
 20
0.2219572126724027
 30
0.0
 10
3.2203069422174
 20
0.2048189797056586
 30
0.0
 10
3.2105
 20
0.1876745404664321
 30
0.0
  0
SPLINE
  5
33A
330
1F
100
AcDbEntity
  8
0
  6
Continuous
 62
     7
370
    25
100
AcDbSpline
210
0.0
220
0.0
230
1.0
 70
     8
 71
     3
 72
     8
 73
     4
 74
     0
 42
0.00000001
 43
0.00000001
 40
0.0
 40
0.0
 40
0.0
 40
0.0
 40
1.0
 40
1.0
 40
1.0
 40
1.0
 10
2.698
 20
0.1876745404664319
 30
0.0
 10
2.688193054378964
 20
0.2048189856558754
 30
0.0
 10
2.678375264367423
 20
0.221957212721875
 30
0.0
 10
2.66855236059795
 20
0.2390925059482557
 30
0.0
  0
SPLINE
  5
33B
330
1F
100
AcDbEntity
  8
0
  6
Continuous
 62
     7
370
    25
100
AcDbSpline
210
0.0
220
0.0
230
1.0
 70
     8
 71
     3
 72
     8
 73
     4
 74
     0
 42
0.00000001
 43
0.00000001
 40
0.0
 40
0.0
 40
0.0
 40
0.0
 40
1.0
 40
1.0
 40
1.0
 40
1.0
 10
2.639947639402051
 20
0.2390925059482554
 30
0.0
 10
2.630124735604218
 20
0.2219572126724027
 30
0.0
 10
2.620306942217399
 20
0.2048189797056585
 30
0.0
 10
2.6105
 20
0.1876745404664321
 30
0.0
  0
SPLINE
  5
33C
330
1F
100
AcDbEntity
  8
0
  6
Continuous
 62
     7
370
    25
100
AcDbSpline
210
0.0
220
0.0
230
1.0
 70
     8
 71
     3
 72
     8
 73
     4
 74
     0
 42
0.00000001
 43
0.00000001
 40
0.0
 40
0.0
 40
0.0
 40
0.0
 40
1.0
 40
1.0
 40
1.0
 40
1.0
 10
3.398
 20
0.187674540466432
 30
0.0
 10
3.388193054378965
 20
0.2048189856558754
 30
0.0
 10
3.378375264367423
 20
0.221957212721875
 30
0.0
 10
3.36855236059795
 20
0.2390925059482557
 30
0.0
  0
SPLINE
  5
33D
330
1F
100
AcDbEntity
  8
0
  6
Continuous
 62
     7
370
    25
100
AcDbSpline
210
0.0
220
0.0
230
1.0
 70
     8
 71
     3
 72
     8
 73
     4
 74
     0
 42
0.00000001
 43
0.00000001
 40
0.0
 40
0.0
 40
0.0
 40
0.0
 40
1.0
 40
1.0
 40
1.0
 40
1.0
 10
2.598
 20
0.1876745404664319
 30
0.0
 10
2.588193054378965
 20
0.2048189856558754
 30
0.0
 10
2.578375264367423
 20
0.221957212721875
 30
0.0
 10
2.56855236059795
 20
0.2390925059482557
 30
0.0
  0
SPLINE
  5
33E
330
1F
100
AcDbEntity
  8
0
  6
Continuous
 62
     7
370
    25
100
AcDbSpline
210
0.0
220
0.0
230
1.0
 70
     8
 71
     3
 72
     8
 73
     4
 74
     0
 42
0.00000001
 43
0.00000001
 40
0.0
 40
0.0
 40
0.0
 40
0.0
 40
1.0
 40
1.0
 40
1.0
 40
1.0
 10
3.098
 20
0.187674540466432
 30
0.0
 10
3.088193054378965
 20
0.2048189856558754
 30
0.0
 10
3.078375264367423
 20
0.221957212721875
 30
0.0
 10
3.068552360597951
 20
0.2390925059482557
 30
0.0
  0
SPLINE
  5
33F
330
1F
100
AcDbEntity
  8
0
  6
Continuous
 62
     7
370
    25
100
AcDbSpline
210
0.0
220
0.0
230
1.0
 70
     8
 71
     3
 72
     8
 73
     4
 74
     0
 42
0.00000001
 43
0.00000001
 40
0.0
 40
0.0
 40
0.0
 40
0.0
 40
1.0
 40
1.0
 40
1.0
 40
1.0
 10
3.198
 20
0.187674540466432
 30
0.0
 10
3.188193054378965
 20
0.2048189856558754
 30
0.0
 10
3.178375264367423
 20
0.221957212721875
 30
0.0
 10
3.168552360597951
 20
0.2390925059482557
 30
0.0
  0
SPLINE
  5
340
330
1F
100
AcDbEntity
  8
0
  6
Continuous
 62
     7
370
    25
100
AcDbSpline
210
0.0
220
0.0
230
1.0
 70
     8
 71
     3
 72
     8
 73
     4
 74
     0
 42
0.00000001
 43
0.00000001
 40
0.0
 40
0.0
 40
0.0
 40
0.0
 40
1.0
 40
1.0
 40
1.0
 40
1.0
 10
3.298
 20
0.187674540466432
 30
0.0
 10
3.288193054378965
 20
0.2048189856558754
 30
0.0
 10
3.278375264367423
 20
0.221957212721875
 30
0.0
 10
3.26855236059795
 20
0.2390925059482557
 30
0.0
  0
SPLINE
  5
341
330
1F
100
AcDbEntity
  8
0
  6
Continuous
 62
     7
370
    25
100
AcDbSpline
210
0.0
220
0.0
230
1.0
 70
     8
 71
     3
 72
     8
 73
     4
 74
     0
 42
0.00000001
 43
0.00000001
 40
0.0
 40
0.0
 40
0.0
 40
0.0
 40
1.0
 40
1.0
 40
1.0
 40
1.0
 10
2.398
 20
0.1876745404664322
 30
0.0
 10
2.388193054378965
 20
0.2048189856558756
 30
0.0
 10
2.378375264367423
 20
0.2219572127218751
 30
0.0
 10
2.36855236059795
 20
0.2390925059482557
 30
0.0
  0
SPLINE
  5
342
330
1F
100
AcDbEntity
  8
0
  6
Continuous
 62
     7
370
    25
100
AcDbSpline
210
0.0
220
0.0
230
1.0
 70
     8
 71
     3
 72
     8
 73
     4
 74
     0
 42
0.00000001
 43
0.00000001
 40
0.0
 40
0.0
 40
0.0
 40
0.0
 40
1.0
 40
1.0
 40
1.0
 40
1.0
 10
3.039947639402051
 20
0.2390925059482554
 30
0.0
 10
3.030124735604218
 20
0.2219572126724027
 30
0.0
 10
3.0203069422174
 20
0.2048189797056586
 30
0.0
 10
3.0105
 20
0.1876745404664321
 30
0.0
  0
SPLINE
  5
343
330
1F
100
AcDbEntity
  8
0
  6
Continuous
 62
     7
370
    25
100
AcDbSpline
210
0.0
220
0.0
230
1.0
 70
     8
 71
     3
 72
     8
 73
     4
 74
     0
 42
0.00000001
 43
0.00000001
 40
0.0
 40
0.0
 40
0.0
 40
0.0
 40
1.0
 40
1.0
 40
1.0
 40
1.0
 10
2.939947639402051
 20
0.2390925059482555
 30
0.0
 10
2.930124735604218
 20
0.2219572126724028
 30
0.0
 10
2.9203069422174
 20
0.2048189797056587
 30
0.0
 10
2.9105
 20
0.1876745404664322
 30
0.0
  0
SPLINE
  5
344
330
1F
100
AcDbEntity
  8
0
  6
Continuous
 62
     7
370
    25
100
AcDbSpline
210
0.0
220
0.0
230
1.0
 70
     8
 71
     3
 72
     8
 73
     4
 74
     0
 42
0.00000001
 43
0.00000001
 40
0.0
 40
0.0
 40
0.0
 40
0.0
 40
1.0
 40
1.0
 40
1.0
 40
1.0
 10
2.839947639402051
 20
0.2390925059482554
 30
0.0
 10
2.830124735604218
 20
0.2219572126724027
 30
0.0
 10
2.8203069422174
 20
0.2048189797056585
 30
0.0
 10
2.8105
 20
0.1876745404664321
 30
0.0
  0
SPLINE
  5
345
330
1F
100
AcDbEntity
  8
0
  6
Continuous
 62
     7
370
    25
100
AcDbSpline
210
0.0
220
0.0
230
1.0
 70
     8
 71
     3
 72
     8
 73
     4
 74
     0
 42
0.00000001
 43
0.00000001
 40
0.0
 40
0.0
 40
0.0
 40
0.0
 40
1.0
 40
1.0
 40
1.0
 40
1.0
 10
3.339947639402051
 20
0.2390925059482555
 30
0.0
 10
3.330124735604218
 20
0.2219572126724028
 30
0.0
 10
3.3203069422174
 20
0.2048189797056587
 30
0.0
 10
3.3105
 20
0.1876745404664322
 30
0.0
  0
SPLINE
  5
346
330
1F
100
AcDbEntity
  8
0
  6
Continuous
 62
     7
370
    25
100
AcDbSpline
210
0.0
220
0.0
230
1.0
 70
     8
 71
     3
 72
     8
 73
     4
 74
     0
 42
0.00000001
 43
0.00000001
 40
0.0
 40
0.0
 40
0.0
 40
0.0
 40
1.0
 40
1.0
 40
1.0
 40
1.0
 10
2.539947639402051
 20
0.2390925059482555
 30
0.0
 10
2.530124735604218
 20
0.2219572126724028
 30
0.0
 10
2.520306942217399
 20
0.2048189797056587
 30
0.0
 10
2.5105
 20
0.1876745404664322
 30
0.0
  0
SPLINE
  5
347
330
1F
100
AcDbEntity
  8
0
  6
Continuous
 62
     7
370
    25
100
AcDbSpline
210
0.0
220
0.0
230
1.0
 70
     8
 71
     3
 72
     8
 73
     4
 74
     0
 42
0.00000001
 43
0.00000001
 40
0.0
 40
0.0
 40
0.0
 40
0.0
 40
1.0
 40
1.0
 40
1.0
 40
1.0
 10
2.798
 20
0.1876745404664319
 30
0.0
 10
2.788193054378965
 20
0.2048189856558754
 30
0.0
 10
2.778375264367423
 20
0.221957212721875
 30
0.0
 10
2.76855236059795
 20
0.2390925059482557
 30
0.0
  0
SPLINE
  5
348
330
1F
100
AcDbEntity
  8
0
  6
Continuous
 62
     7
370
    25
100
AcDbSpline
210
0.0
220
0.0
230
1.0
 70
     8
 71
     3
 72
     8
 73
     4
 74
     0
 42
0.00000001
 43
0.00000001
 40
0.0
 40
0.0
 40
0.0
 40
0.0
 40
1.0
 40
1.0
 40
1.0
 40
1.0
 10
2.498
 20
0.1876745404664319
 30
0.0
 10
2.488193054378965
 20
0.2048189856558754
 30
0.0
 10
2.478375264367423
 20
0.2219572127218751
 30
0.0
 10
2.46855236059795
 20
0.2390925059482557
 30
0.0
  0
SPLINE
  5
349
330
1F
100
AcDbEntity
  8
0
  6
Continuous
 62
     7
370
    25
100
AcDbSpline
210
0.0
220
0.0
230
1.0
 70
     8
 71
     3
 72
     8
 73
     4
 74
     0
 42
0.00000001
 43
0.00000001
 40
0.0
 40
0.0
 40
0.0
 40
0.0
 40
1.0
 40
1.0
 40
1.0
 40
1.0
 10
2.898
 20
0.1876745404664319
 30
0.0
 10
2.888193054378965
 20
0.2048189856558754
 30
0.0
 10
2.878375264367423
 20
0.221957212721875
 30
0.0
 10
2.86855236059795
 20
0.2390925059482557
 30
0.0
  0
SPLINE
  5
34A
330
1F
100
AcDbEntity
  8
0
  6
Continuous
 62
     7
370
    25
100
AcDbSpline
210
0.0
220
0.0
230
1.0
 70
     8
 71
     3
 72
     8
 73
     4
 74
     0
 42
0.00000001
 43
0.00000001
 40
0.0
 40
0.0
 40
0.0
 40
0.0
 40
1.0
 40
1.0
 40
1.0
 40
1.0
 10
2.739947639402051
 20
0.2390925059482555
 30
0.0
 10
2.730124735604218
 20
0.2219572126724028
 30
0.0
 10
2.7203069422174
 20
0.2048189797056587
 30
0.0
 10
2.7105
 20
0.1876745404664322
 30
0.0
  0
SPLINE
  5
34B
330
1F
100
AcDbEntity
  8
0
  6
Continuous
 62
     7
370
    25
100
AcDbSpline
210
0.0
220
0.0
230
1.0
 70
     8
 71
     3
 72
     8
 73
     4
 74
     0
 42
0.00000001
 43
0.00000001
 40
0.0
 40
0.0
 40
0.0
 40
0.0
 40
1.0
 40
1.0
 40
1.0
 40
1.0
 10
2.998
 20
0.187674540466432
 30
0.0
 10
2.988193054378965
 20
0.2048189856558754
 30
0.0
 10
2.978375264367423
 20
0.221957212721875
 30
0.0
 10
2.96855236059795
 20
0.2390925059482557
 30
0.0
  0
LINE
  5
361
330
1F
100
AcDbEntity
  8
0
  6
Continuous
 62
     7
370
    25
100
AcDbLine
 10
0.02
 20
-0.24985
 30
0.0
 11
1.9369039065
 21
-0.24985
 31
0.0
  0
LINE
  5
362
330
1F
100
AcDbEntity
  8
0
  6
Continuous
 62
     7
370
    25
100
AcDbLine
 10
1.9369039065
 20
0.24985
 30
0.0
 11
0.02
 21
0.24985
 31
0.0
  0
LINE
  5
363
330
1F
100
AcDbEntity
  8
0
  6
Continuous
 62
     7
370
    25
100
AcDbLine
 10
0.02
 20
0.24985
 30
0.0
 11
0.0
 21
0.22985
 31
0.0
  0
LINE
  5
364
330
1F
100
AcDbEntity
  8
0
  6
Continuous
 62
     7
370
    25
100
AcDbLine
 10
0.0
 20
-0.22985
 30
0.0
 11
0.02
 21
-0.24985
 31
0.0
  0
LINE
  5
365
330
1F
100
AcDbEntity
  8
0
  6
Continuous
 62
     7
370
    25
100
AcDbLine
 10
2.35425
 20
0.2490482333
 30
0.0
 11
1.9476056478
 21
0.2491879072
 31
0.0
  0
LINE
  5
366
330
1F
100
AcDbEntity
  8
0
  6
Continuous
 62
     7
370
    25
100
AcDbLine
 10
2.898
 20
0.1876745405
 30
0.0
 11
2.8685523606
 21
0.2390925059
 31
0.0
  0
LINE
  5
367
330
1F
100
AcDbEntity
  8
0
  6
Continuous
 62
     7
370
    25
100
AcDbLine
 10
3.098
 20
0.1876745405
 30
0.0
 11
3.0685523606
 21
0.2390925059
 31
0.0
  0
LINE
  5
368
330
1F
100
AcDbEntity
  8
0
  6
Continuous
 62
     7
370
    25
100
AcDbLine
 10
2.998
 20
0.1876745405
 30
0.0
 11
2.9685523606
 21
0.2390925059
 31
0.0
  0
LINE
  5
369
330
1F
100
AcDbEntity
  8
0
  6
Continuous
 62
     7
370
    25
100
AcDbLine
 10
2.698
 20
0.1876745405
 30
0.0
 11
2.6685523606
 21
0.2390925059
 31
0.0
  0
LINE
  5
36A
330
1F
100
AcDbEntity
  8
0
  6
Continuous
 62
     7
370
    25
100
AcDbLine
 10
3.298
 20
0.1876745405
 30
0.0
 11
3.2685523606
 21
0.2390925059
 31
0.0
  0
LINE
  5
36B
330
1F
100
AcDbEntity
  8
0
  6
Continuous
 62
     7
370
    25
100
AcDbLine
 10
3.398
 20
0.1876745405
 30
0.0
 11
3.3685523606
 21
0.2390925059
 31
0.0
  0
LINE
  5
36C
330
1F
100
AcDbEntity
  8
0
  6
Continuous
 62
     7
370
    25
100
AcDbLine
 10
3.198
 20
0.1876745405
 30
0.0
 11
3.1685523606
 21
0.2390925059
 31
0.0
  0
LINE
  5
36D
330
1F
100
AcDbEntity
  8
0
  6
Continuous
 62
     7
370
    25
100
AcDbLine
 10
2.598
 20
0.1876745405
 30
0.0
 11
2.5685523606
 21
0.2390925059
 31
0.0
  0
LINE
  5
36E
330
1F
100
AcDbEntity
  8
0
  6
Continuous
 62
     7
370
    25
100
AcDbLine
 10
2.798
 20
0.1876745405
 30
0.0
 11
2.7685523606
 21
0.2390925059
 31
0.0
  0
LINE
  5
36F
330
1F
100
AcDbEntity
  8
0
  6
Continuous
 62
     7
370
    25
100
AcDbLine
 10
3.2399476394
 20
0.2390925059
 30
0.0
 11
3.2105
 21
0.1876745405
 31
0.0
  0
LINE
  5
370
330
1F
100
AcDbEntity
  8
0
  6
Continuous
 62
     7
370
    25
100
AcDbLine
 10
3.0399476394
 20
0.2390925059
 30
0.0
 11
3.0105
 21
0.1876745405
 31
0.0
  0
LINE
  5
371
330
1F
100
AcDbEntity
  8
0
  6
Continuous
 62
     7
370
    25
100
AcDbLine
 10
2.4399476394
 20
0.2390925059
 30
0.0
 11
2.4105
 21
0.1876745405
 31
0.0
  0
LINE
  5
372
330
1F
100
AcDbEntity
  8
0
  6
Continuous
 62
     7
370
    25
100
AcDbLine
 10
2.6399476394
 20
0.2390925059
 30
0.0
 11
2.6105
 21
0.1876745405
 31
0.0
  0
LINE
  5
373
330
1F
100
AcDbEntity
  8
0
  6
Continuous
 62
     7
370
    25
100
AcDbLine
 10
2.8399476394
 20
0.2390925059
 30
0.0
 11
2.8105
 21
0.1876745405
 31
0.0
  0
LINE
  5
374
330
1F
100
AcDbEntity
  8
0
  6
Continuous
 62
     7
370
    25
100
AcDbLine
 10
2.498
 20
0.1876745405
 30
0.0
 11
2.4685523606
 21
0.2390925059
 31
0.0
  0
LINE
  5
375
330
1F
100
AcDbEntity
  8
0
  6
Continuous
 62
     7
370
    25
100
AcDbLine
 10
3.3399476394
 20
0.2390925059
 30
0.0
 11
3.3105
 21
0.1876745405
 31
0.0
  0
LINE
  5
376
330
1F
100
AcDbEntity
  8
0
  6
Continuous
 62
     7
370
    25
100
AcDbLine
 10
2.5399476394
 20
0.2390925059
 30
0.0
 11
2.5105
 21
0.1876745405
 31
0.0
  0
LINE
  5
377
330
1F
100
AcDbEntity
  8
0
  6
Continuous
 62
     7
370
    25
100
AcDbLine
 10
2.7399476394
 20
0.2390925059
 30
0.0
 11
2.7105
 21
0.1876745405
 31
0.0
  0
LINE
  5
378
330
1F
100
AcDbEntity
  8
0
  6
Continuous
 62
     7
370
    25
100
AcDbLine
 10
3.1399476394
 20
0.2390925059
 30
0.0
 11
3.1105
 21
0.1876745405
 31
0.0
  0
LINE
  5
379
330
1F
100
AcDbEntity
  8
0
  6
Continuous
 62
     7
370
    25
100
AcDbLine
 10
2.9399476394
 20
0.2390925059
 30
0.0
 11
2.9105
 21
0.1876745405
 31
0.0
  0
LINE
  5
37A
330
1F
100
AcDbEntity
  8
0
  6
Continuous
 62
     7
370
    25
100
AcDbLine
 10
2.398
 20
0.1876745405
 30
0.0
 11
2.3685523606
 21
0.2390925059
 31
0.0
  0
LINE
  5
37B
330
1F
100
AcDbEntity
  8
0
  6
Continuous
 62
     7
370
    25
100
AcDbLine
 10
2.4105
 20
0.1876745405
 30
0.0
 11
2.398
 21
0.1876745405
 31
0.0
  0
LINE
  5
37C
330
1F
100
AcDbEntity
  8
0
  6
Continuous
 62
     7
370
    25
100
AcDbLine
 10
2.5105
 20
0.1876745405
 30
0.0
 11
2.498
 21
0.1876745405
 31
0.0
  0
LINE
  5
37D
330
1F
100
AcDbEntity
  8
0
  6
Continuous
 62
     7
370
    25
100
AcDbLine
 10
2.7105
 20
0.1876745405
 30
0.0
 11
2.698
 21
0.1876745405
 31
0.0
  0
LINE
  5
37E
330
1F
100
AcDbEntity
  8
0
  6
Continuous
 62
     7
370
    25
100
AcDbLine
 10
2.6105
 20
0.1876745405
 30
0.0
 11
2.598
 21
0.1876745405
 31
0.0
  0
LINE
  5
37F
330
1F
100
AcDbEntity
  8
0
  6
Continuous
 62
     7
370
    25
100
AcDbLine
 10
2.8105
 20
0.1876745405
 30
0.0
 11
2.798
 21
0.1876745405
 31
0.0
  0
LINE
  5
380
330
1F
100
AcDbEntity
  8
0
  6
Continuous
 62
     7
370
    25
100
AcDbLine
 10
3.2105
 20
0.1876745405
 30
0.0
 11
3.198
 21
0.1876745405
 31
0.0
  0
LINE
  5
381
330
1F
100
AcDbEntity
  8
0
  6
Continuous
 62
     7
370
    25
100
AcDbLine
 10
3.0105
 20
0.1876745405
 30
0.0
 11
2.998
 21
0.1876745405
 31
0.0
  0
LINE
  5
382
330
1F
100
AcDbEntity
  8
0
  6
Continuous
 62
     7
370
    25
100
AcDbLine
 10
2.9105
 20
0.1876745405
 30
0.0
 11
2.898
 21
0.1876745405
 31
0.0
  0
LINE
  5
383
330
1F
100
AcDbEntity
  8
0
  6
Continuous
 62
     7
370
    25
100
AcDbLine
 10
3.3105
 20
0.1876745405
 30
0.0
 11
3.298
 21
0.1876745405
 31
0.0
  0
LINE
  5
384
330
1F
100
AcDbEntity
  8
0
  6
Continuous
 62
     7
370
    25
100
AcDbLine
 10
3.1105
 20
0.1876745405
 30
0.0
 11
3.098
 21
0.1876745405
 31
0.0
  0
LINE
  5
385
330
1F
100
AcDbEntity
  8
0
  6
Continuous
 62
     7
370
    25
100
AcDbLine
 10
3.4
 20
0.1876745405
 30
0.0
 11
3.398
 21
0.1876745405
 31
0.0
  0
LINE
  5
386
330
1F
100
AcDbEntity
  8
0
  6
Continuous
 62
     7
370
    25
100
AcDbLine
 10
1.9431270854
 20
-0.2491894455
 30
0.0
 11
2.35425
 21
-0.2490482333
 31
0.0
  0
LINE
  5
387
330
1F
100
AcDbEntity
  8
0
  6
Continuous
 62
     7
370
    25
100
AcDbLine
 10
1.932526567
 20
0.1312888354
 30
0.0
 11
1.9337876937
 21
0.130960017
 31
0.0
  0
LINE
  5
388
330
1F
100
AcDbEntity
  8
0
  6
Continuous
 62
     7
370
    25
100
AcDbLine
 10
2.35425
 20
-0.1072036086
 30
0.0
 11
1.9551619486
 21
-0.1072036086
 31
0.0
  0
LINE
  5
389
330
1F
100
AcDbEntity
  8
0
  6
Continuous
 62
     7
370
    25
100
AcDbLine
 10
2.35425
 20
-0.2490482333
 30
0.0
 11
1.9551619486
 21
-0.2490482333
 31
0.0
  0
LINE
  5
38A
330
1F
100
AcDbEntity
  8
0
  6
Continuous
 62
     7
370
    25
100
AcDbLine
 10
2.35425
 20
-0.2490482333
 30
0.0
 11
2.35425
 21
0.2490482333
 31
0.0
  0
LINE
  5
38B
330
1F
100
AcDbEntity
  8
0
  6
Continuous
 62
     7
370
    25
100
AcDbLine
 10
2.35425
 20
0.1418446247
 30
0.0
 11
1.9551619486
 21
0.1418446247
 31
0.0
  0
LINE
  5
38C
330
1F
100
AcDbEntity
  8
0
  6
Continuous
 62
     7
370
    25
100
AcDbLine
 10
0.02
 20
0.24985
 30
0.0
 11
0.02
 21
-0.24985
 31
0.0
  0
LINE
  5
38D
330
1F
100
AcDbEntity
  8
0
  6
Continuous
 62
     7
370
    25
100
AcDbLine
 10
0.0
 20
-0.22985
 30
0.0
 11
0.0
 21
0.22985
 31
0.0
  0
LINE
  5
38E
330
1F
100
AcDbEntity
  8
0
  6
Continuous
 62
     7
370
    25
100
AcDbLine
 10
1.9337876937
 20
-0.1181223863
 30
0.0
 11
1.932526567
 21
-0.1184512046
 31
0.0
  0
LINE
  5
38F
330
1F
100
AcDbEntity
  8
0
  6
Continuous
 62
     7
370
    25
100
AcDbLine
 10
2.35425
 20
0.1414424466
 30
0.0
 11
1.9565079838
 21
0.1415109759
 31
0.0
  0
LINE
  5
390
330
1F
100
AcDbEntity
  8
0
  6
Continuous
 62
     7
370
    25
100
AcDbLine
 10
3.3685523606
 20
-0.0472507015
 30
0.0
 11
3.3685523606
 21
0.1364477787
 31
0.0
  0
LINE
  5
391
330
1F
100
AcDbEntity
  8
0
  6
Continuous
 62
     7
370
    25
100
AcDbLine
 10
3.3399476394
 20
-0.0472507015
 30
0.0
 11
3.3399476394
 21
0.1364477787
 31
0.0
  0
LINE
  5
392
330
1F
100
AcDbEntity
  8
0
  6
Continuous
 62
     7
370
    25
100
AcDbLine
 10
3.1685523606
 20
-0.0472507015
 30
0.0
 11
3.1685523606
 21
0.1364477787
 31
0.0
  0
LINE
  5
393
330
1F
100
AcDbEntity
  8
0
  6
Continuous
 62
     7
370
    25
100
AcDbLine
 10
3.1399476394
 20
-0.0472507015
 30
0.0
 11
3.1399476394
 21
0.1364477787
 31
0.0
  0
LINE
  5
394
330
1F
100
AcDbEntity
  8
0
  6
Continuous
 62
     7
370
    25
100
AcDbLine
 10
2.9685523606
 20
-0.0472507015
 30
0.0
 11
2.9685523606
 21
0.1364477787
 31
0.0
  0
LINE
  5
395
330
1F
100
AcDbEntity
  8
0
  6
Continuous
 62
     7
370
    25
100
AcDbLine
 10
2.9399476394
 20
-0.0472507015
 30
0.0
 11
2.9399476394
 21
0.1364477787
 31
0.0
  0
LINE
  5
396
330
1F
100
AcDbEntity
  8
0
  6
Continuous
 62
     7
370
    25
100
AcDbLine
 10
2.7685523606
 20
-0.0472507015
 30
0.0
 11
2.7685523606
 21
0.1364477787
 31
0.0
  0
LINE
  5
397
330
1F
100
AcDbEntity
  8
0
  6
Continuous
 62
     7
370
    25
100
AcDbLine
 10
2.7399476394
 20
-0.0472507015
 30
0.0
 11
2.7399476394
 21
0.1364477787
 31
0.0
  0
LINE
  5
398
330
1F
100
AcDbEntity
  8
0
  6
Continuous
 62
     7
370
    25
100
AcDbLine
 10
3.2685523606
 20
-0.0472507015
 30
0.0
 11
3.2685523606
 21
0.1364477787
 31
0.0
  0
LINE
  5
399
330
1F
100
AcDbEntity
  8
0
  6
Continuous
 62
     7
370
    25
100
AcDbLine
 10
3.2399476394
 20
-0.0472507015
 30
0.0
 11
3.2399476394
 21
0.1364477787
 31
0.0
  0
LINE
  5
39A
330
1F
100
AcDbEntity
  8
0
  6
Continuous
 62
     7
370
    25
100
AcDbLine
 10
3.0685523606
 20
-0.0472507015
 30
0.0
 11
3.0685523606
 21
0.1364477787
 31
0.0
  0
LINE
  5
39B
330
1F
100
AcDbEntity
  8
0
  6
Continuous
 62
     7
370
    25
100
AcDbLine
 10
3.0399476394
 20
-0.0472507015
 30
0.0
 11
3.0399476394
 21
0.1364477787
 31
0.0
  0
LINE
  5
39C
330
1F
100
AcDbEntity
  8
0
  6
Continuous
 62
     7
370
    25
100
AcDbLine
 10
2.5685523606
 20
-0.0472507015
 30
0.0
 11
2.5685523606
 21
0.1364477787
 31
0.0
  0
LINE
  5
39D
330
1F
100
AcDbEntity
  8
0
  6
Continuous
 62
     7
370
    25
100
AcDbLine
 10
2.5399476394
 20
-0.0472507015
 30
0.0
 11
2.5399476394
 21
0.1364477787
 31
0.0
  0
LINE
  5
39E
330
1F
100
AcDbEntity
  8
0
  6
Continuous
 62
     7
370
    25
100
AcDbLine
 10
2.8685523606
 20
-0.0472507015
 30
0.0
 11
2.8685523606
 21
0.1364477787
 31
0.0
  0
LINE
  5
39F
330
1F
100
AcDbEntity
  8
0
  6
Continuous
 62
     7
370
    25
100
AcDbLine
 10
2.8399476394
 20
-0.0472507015
 30
0.0
 11
2.8399476394
 21
0.1364477787
 31
0.0
  0
LINE
  5
3A0
330
1F
100
AcDbEntity
  8
0
  6
Continuous
 62
     7
370
    25
100
AcDbLine
 10
2.6685523606
 20
-0.0472507015
 30
0.0
 11
2.6685523606
 21
0.1364477787
 31
0.0
  0
LINE
  5
3A1
330
1F
100
AcDbEntity
  8
0
  6
Continuous
 62
     7
370
    25
100
AcDbLine
 10
2.6399476394
 20
-0.0472507015
 30
0.0
 11
2.6399476394
 21
0.1364477787
 31
0.0
  0
LINE
  5
3A2
330
1F
100
AcDbEntity
  8
0
  6
Continuous
 62
     7
370
    25
100
AcDbLine
 10
2.4685523606
 20
-0.0472507015
 30
0.0
 11
2.4685523606
 21
0.1364477787
 31
0.0
  0
LINE
  5
3A3
330
1F
100
AcDbEntity
  8
0
  6
Continuous
 62
     7
370
    25
100
AcDbLine
 10
2.4399476394
 20
-0.0472507015
 30
0.0
 11
2.4399476394
 21
0.1364477787
 31
0.0
  0
LINE
  5
3A4
330
1F
100
AcDbEntity
  8
0
  6
Continuous
 62
     7
370
    25
100
AcDbLine
 10
2.3685523606
 20
-0.0466676488
 30
0.0
 11
2.3685523606
 21
0.1364477787
 31
0.0
  0
LINE
  5
3A5
330
1F
100
AcDbEntity
  8
0
  6
Continuous
 62
     7
370
    25
100
AcDbLine
 10
2.4
 20
-0.00160405
 30
0.0
 11
2.4
 21
-0.0005474021
 31
0.0
  0
LINE
  5
3A6
330
1F
100
AcDbEntity
  8
0
  6
Continuous
 62
     7
370
    25
100
AcDbLine
 10
2.3685523606
 20
-0.2264114394
 30
0.0
 11
2.3685523606
 21
-0.0473770363
 31
0.0
  0
LINE
  5
3A7
330
1F
100
AcDbEntity
  8
0
  6
Continuous
 62
     7
370
    25
100
AcDbLine
 10
2.8399476394
 20
-0.2266018228
 30
0.0
 11
2.8399476394
 21
-0.047959077
 31
0.0
  0
LINE
  5
3A8
330
1F
100
AcDbEntity
  8
0
  6
Continuous
 62
     7
370
    25
100
AcDbLine
 10
2.8685523606
 20
-0.2266018228
 30
0.0
 11
2.8685523606
 21
-0.047959077
 31
0.0
  0
LINE
  5
3A9
330
1F
100
AcDbEntity
  8
0
  6
Continuous
 62
     7
370
    25
100
AcDbLine
 10
2.498
 20
-0.0005474021
 30
0.0
 11
2.5105
 21
-0.0005474021
 31
0.0
  0
LINE
  5
3AA
330
1F
100
AcDbEntity
  8
0
  6
Continuous
 62
     7
370
    25
100
AcDbLine
 10
2.598
 20
-0.0005474021
 30
0.0
 11
2.6105
 21
-0.0005474021
 31
0.0
  0
LINE
  5
3AB
330
1F
100
AcDbEntity
  8
0
  6
Continuous
 62
     7
370
    25
100
AcDbLine
 10
2.698
 20
-0.0005474021
 30
0.0
 11
2.7105
 21
-0.0005474021
 31
0.0
  0
LINE
  5
3AC
330
1F
100
AcDbEntity
  8
0
  6
Continuous
 62
     7
370
    25
100
AcDbLine
 10
2.798
 20
-0.0005474021
 30
0.0
 11
2.8105
 21
-0.0005474021
 31
0.0
  0
LINE
  5
3AD
330
1F
100
AcDbEntity
  8
0
  6
Continuous
 62
     7
370
    25
100
AcDbLine
 10
2.898
 20
-0.0005474021
 30
0.0
 11
2.9105
 21
-0.0005474021
 31
0.0
  0
LINE
  5
3AE
330
1F
100
AcDbEntity
  8
0
  6
Continuous
 62
     7
370
    25
100
AcDbLine
 10
2.998
 20
-0.0005474021
 30
0.0
 11
3.0105
 21
-0.0005474021
 31
0.0
  0
LINE
  5
3AF
330
1F
100
AcDbEntity
  8
0
  6
Continuous
 62
     7
370
    25
100
AcDbLine
 10
3.098
 20
-0.0005474021
 30
0.0
 11
3.1105
 21
-0.0005474021
 31
0.0
  0
LINE
  5
3B0
330
1F
100
AcDbEntity
  8
0
  6
Continuous
 62
     7
370
    25
100
AcDbLine
 10
3.198
 20
-0.0005474021
 30
0.0
 11
3.2105
 21
-0.0005474021
 31
0.0
  0
LINE
  5
3B1
330
1F
100
AcDbEntity
  8
0
  6
Continuous
 62
     7
370
    25
100
AcDbLine
 10
3.298
 20
-0.0005474021
 30
0.0
 11
3.3105
 21
-0.0005474021
 31
0.0
  0
LINE
  5
3B2
330
1F
100
AcDbEntity
  8
0
  6
Continuous
 62
     7
370
    25
100
AcDbLine
 10
3.398
 20
-0.0005474021
 30
0.0
 11
3.4
 21
-0.0005474021
 31
0.0
  0
LINE
  5
3B3
330
1F
100
AcDbEntity
  8
0
  6
Continuous
 62
     7
370
    25
100
AcDbLine
 10
3.398
 20
-0.00160405
 30
0.0
 11
3.4
 21
-0.00160405
 31
0.0
  0
LINE
  5
3B4
330
1F
100
AcDbEntity
  8
0
  6
Continuous
 62
     7
370
    25
100
AcDbLine
 10
3.298
 20
-0.00160405
 30
0.0
 11
3.3105
 21
-0.00160405
 31
0.0
  0
LINE
  5
3B5
330
1F
100
AcDbEntity
  8
0
  6
Continuous
 62
     7
370
    25
100
AcDbLine
 10
3.198
 20
-0.00160405
 30
0.0
 11
3.2105
 21
-0.00160405
 31
0.0
  0
LINE
  5
3B6
330
1F
100
AcDbEntity
  8
0
  6
Continuous
 62
     7
370
    25
100
AcDbLine
 10
3.098
 20
-0.00160405
 30
0.0
 11
3.1105
 21
-0.00160405
 31
0.0
  0
LINE
  5
3B7
330
1F
100
AcDbEntity
  8
0
  6
Continuous
 62
     7
370
    25
100
AcDbLine
 10
2.998
 20
-0.00160405
 30
0.0
 11
3.0105
 21
-0.00160405
 31
0.0
  0
LINE
  5
3B8
330
1F
100
AcDbEntity
  8
0
  6
Continuous
 62
     7
370
    25
100
AcDbLine
 10
2.898
 20
-0.00160405
 30
0.0
 11
2.9105
 21
-0.00160405
 31
0.0
  0
LINE
  5
3B9
330
1F
100
AcDbEntity
  8
0
  6
Continuous
 62
     7
370
    25
100
AcDbLine
 10
2.798
 20
-0.00160405
 30
0.0
 11
2.8105
 21
-0.00160405
 31
0.0
  0
LINE
  5
3BA
330
1F
100
AcDbEntity
  8
0
  6
Continuous
 62
     7
370
    25
100
AcDbLine
 10
2.698
 20
-0.00160405
 30
0.0
 11
2.7105
 21
-0.00160405
 31
0.0
  0
LINE
  5
3BB
330
1F
100
AcDbEntity
  8
0
  6
Continuous
 62
     7
370
    25
100
AcDbLine
 10
2.598
 20
-0.00160405
 30
0.0
 11
2.6105
 21
-0.00160405
 31
0.0
  0
LINE
  5
3BC
330
1F
100
AcDbEntity
  8
0
  6
Continuous
 62
     7
370
    25
100
AcDbLine
 10
2.498
 20
-0.00160405
 30
0.0
 11
2.5105
 21
-0.00160405
 31
0.0
  0
LINE
  5
3BD
330
1F
100
AcDbEntity
  8
0
  6
Continuous
 62
     7
370
    25
100
AcDbLine
 10
2.4
 20
-0.00160405
 30
0.0
 11
2.4105
 21
-0.00160405
 31
0.0
  0
LINE
  5
3BE
330
1F
100
AcDbEntity
  8
0
  6
Continuous
 62
     7
370
    25
100
AcDbLine
 10
2.4
 20
-0.0005474021
 30
0.0
 11
2.4105
 21
-0.0005474021
 31
0.0
  0
LINE
  5
3BF
330
1F
100
AcDbEntity
  8
0
  6
Continuous
 62
     7
370
    25
100
AcDbLine
 10
2.5399476394
 20
-0.2266018228
 30
0.0
 11
2.5399476394
 21
-0.047959077
 31
0.0
  0
LINE
  5
3C0
330
1F
100
AcDbEntity
  8
0
  6
Continuous
 62
     7
370
    25
100
AcDbLine
 10
2.5685523606
 20
-0.2266018228
 30
0.0
 11
2.5685523606
 21
-0.047959077
 31
0.0
  0
LINE
  5
3C1
330
1F
100
AcDbEntity
  8
0
  6
Continuous
 62
     7
370
    25
100
AcDbLine
 10
2.6399476394
 20
-0.2266018228
 30
0.0
 11
2.6399476394
 21
-0.047959077
 31
0.0
  0
LINE
  5
3C2
330
1F
100
AcDbEntity
  8
0
  6
Continuous
 62
     7
370
    25
100
AcDbLine
 10
2.6685523606
 20
-0.2266018228
 30
0.0
 11
2.6685523606
 21
-0.047959077
 31
0.0
  0
LINE
  5
3C3
330
1F
100
AcDbEntity
  8
0
  6
Continuous
 62
     7
370
    25
100
AcDbLine
 10
2.7399476394
 20
-0.2266018228
 30
0.0
 11
2.7399476394
 21
-0.047959077
 31
0.0
  0
LINE
  5
3C4
330
1F
100
AcDbEntity
  8
0
  6
Continuous
 62
     7
370
    25
100
AcDbLine
 10
2.7685523606
 20
-0.2266018228
 30
0.0
 11
2.7685523606
 21
-0.047959077
 31
0.0
  0
LINE
  5
3C5
330
1F
100
AcDbEntity
  8
0
  6
Continuous
 62
     7
370
    25
100
AcDbLine
 10
3.2399476394
 20
-0.2266018228
 30
0.0
 11
3.2399476394
 21
-0.047959077
 31
0.0
  0
LINE
  5
3C6
330
1F
100
AcDbEntity
  8
0
  6
Continuous
 62
     7
370
    25
100
AcDbLine
 10
3.2685523606
 20
-0.2266018228
 30
0.0
 11
3.2685523606
 21
-0.047959077
 31
0.0
  0
LINE
  5
3C7
330
1F
100
AcDbEntity
  8
0
  6
Continuous
 62
     7
370
    25
100
AcDbLine
 10
3.3399476394
 20
-0.2266018228
 30
0.0
 11
3.3399476394
 21
-0.047959077
 31
0.0
  0
LINE
  5
3C8
330
1F
100
AcDbEntity
  8
0
  6
Continuous
 62
     7
370
    25
100
AcDbLine
 10
3.3685523606
 20
-0.2266018228
 30
0.0
 11
3.3685523606
 21
-0.047959077
 31
0.0
  0
LINE
  5
3C9
330
1F
100
AcDbEntity
  8
0
  6
Continuous
 62
     7
370
    25
100
AcDbLine
 10
3.0399476394
 20
-0.2266018228
 30
0.0
 11
3.0399476394
 21
-0.047959077
 31
0.0
  0
LINE
  5
3CA
330
1F
100
AcDbEntity
  8
0
  6
Continuous
 62
     7
370
    25
100
AcDbLine
 10
3.0685523606
 20
-0.2266018228
 30
0.0
 11
3.0685523606
 21
-0.047959077
 31
0.0
  0
LINE
  5
3CB
330
1F
100
AcDbEntity
  8
0
  6
Continuous
 62
     7
370
    25
100
AcDbLine
 10
3.1399476394
 20
-0.2266018228
 30
0.0
 11
3.1399476394
 21
-0.047959077
 31
0.0
  0
LINE
  5
3CC
330
1F
100
AcDbEntity
  8
0
  6
Continuous
 62
     7
370
    25
100
AcDbLine
 10
3.1685523606
 20
-0.2266018228
 30
0.0
 11
3.1685523606
 21
-0.047959077
 31
0.0
  0
LINE
  5
3CD
330
1F
100
AcDbEntity
  8
0
  6
Continuous
 62
     7
370
    25
100
AcDbLine
 10
2.9399476394
 20
-0.2266018228
 30
0.0
 11
2.9399476394
 21
-0.047959077
 31
0.0
  0
LINE
  5
3CE
330
1F
100
AcDbEntity
  8
0
  6
Continuous
 62
     7
370
    25
100
AcDbLine
 10
2.9685523606
 20
-0.2266018228
 30
0.0
 11
2.9685523606
 21
-0.047959077
 31
0.0
  0
LINE
  5
3CF
330
1F
100
AcDbEntity
  8
0
  6
Continuous
 62
     7
370
    25
100
AcDbLine
 10
2.4399476394
 20
-0.2266018228
 30
0.0
 11
2.4399476394
 21
-0.047959077
 31
0.0
  0
LINE
  5
3D0
330
1F
100
AcDbEntity
  8
0
  6
Continuous
 62
     7
370
    25
100
AcDbLine
 10
2.4685523606
 20
-0.2266018228
 30
0.0
 11
2.4685523606
 21
-0.047959077
 31
0.0
  0
LINE
  5
3D1
330
1F
100
AcDbEntity
  8
0
  6
Continuous
 62
     7
370
    25
100
AcDbLine
 10
2.898
 20
-0.0005474021
 30
0.0
 11
2.898
 21
0.1106234195
 31
0.0
  0
LINE
  5
3D2
330
1F
100
AcDbEntity
  8
0
  6
Continuous
 62
     7
370
    25
100
AcDbLine
 10
3.098
 20
-0.0005474021
 30
0.0
 11
3.098
 21
0.1106234195
 31
0.0
  0
LINE
  5
3D3
330
1F
100
AcDbEntity
  8
0
  6
Continuous
 62
     7
370
    25
100
AcDbLine
 10
3.298
 20
-0.0005474021
 30
0.0
 11
3.298
 21
0.1106234195
 31
0.0
  0
LINE
  5
3D4
330
1F
100
AcDbEntity
  8
0
  6
Continuous
 62
     7
370
    25
100
AcDbLine
 10
2.698
 20
-0.0005474021
 30
0.0
 11
2.698
 21
0.1106234195
 31
0.0
  0
LINE
  5
3D5
330
1F
100
AcDbEntity
  8
0
  6
Continuous
 62
     7
370
    25
100
AcDbLine
 10
2.498
 20
-0.0005474021
 30
0.0
 11
2.498
 21
0.1106234195
 31
0.0
  0
LINE
  5
3D6
330
1F
100
AcDbEntity
  8
0
  6
Continuous
 62
     7
370
    25
100
AcDbLine
 10
2.398
 20
-0.0005446291
 30
0.0
 11
2.398
 21
0.1106234195
 31
0.0
  0
LINE
  5
3D7
330
1F
100
AcDbEntity
  8
0
  6
Continuous
 62
     7
370
    25
100
AcDbLine
 10
3.398
 20
-0.0005474021
 30
0.0
 11
3.398
 21
0.1106234195
 31
0.0
  0
LINE
  5
3D8
330
1F
100
AcDbEntity
  8
0
  6
Continuous
 62
     7
370
    25
100
AcDbLine
 10
2.998
 20
-0.0005474021
 30
0.0
 11
2.998
 21
0.1106234195
 31
0.0
  0
LINE
  5
3D9
330
1F
100
AcDbEntity
  8
0
  6
Continuous
 62
     7
370
    25
100
AcDbLine
 10
3.198
 20
-0.0005474021
 30
0.0
 11
3.198
 21
0.1106234195
 31
0.0
  0
LINE
  5
3DA
330
1F
100
AcDbEntity
  8
0
  6
Continuous
 62
     7
370
    25
100
AcDbLine
 10
2.598
 20
-0.0005474021
 30
0.0
 11
2.598
 21
0.1106234195
 31
0.0
  0
LINE
  5
3DB
330
1F
100
AcDbEntity
  8
0
  6
Continuous
 62
     7
370
    25
100
AcDbLine
 10
2.798
 20
-0.0005474021
 30
0.0
 11
2.798
 21
0.1106234195
 31
0.0
  0
LINE
  5
3DC
330
1F
100
AcDbEntity
  8
0
  6
Continuous
 62
     7
370
    25
100
AcDbLine
 10
2.4105
 20
-0.0005474021
 30
0.0
 11
2.4105
 21
0.1106234195
 31
0.0
  0
LINE
  5
3DD
330
1F
100
AcDbEntity
  8
0
  6
Continuous
 62
     7
370
    25
100
AcDbLine
 10
2.8105
 20
-0.0005474021
 30
0.0
 11
2.8105
 21
0.1106234195
 31
0.0
  0
LINE
  5
3DE
330
1F
100
AcDbEntity
  8
0
  6
Continuous
 62
     7
370
    25
100
AcDbLine
 10
3.1105
 20
-0.0005474021
 30
0.0
 11
3.1105
 21
0.1106234195
 31
0.0
  0
LINE
  5
3DF
330
1F
100
AcDbEntity
  8
0
  6
Continuous
 62
     7
370
    25
100
AcDbLine
 10
2.6105
 20
-0.0005474021
 30
0.0
 11
2.6105
 21
0.1106234195
 31
0.0
  0
LINE
  5
3E0
330
1F
100
AcDbEntity
  8
0
  6
Continuous
 62
     7
370
    25
100
AcDbLine
 10
2.9105
 20
-0.0005474021
 30
0.0
 11
2.9105
 21
0.1106234195
 31
0.0
  0
LINE
  5
3E1
330
1F
100
AcDbEntity
  8
0
  6
Continuous
 62
     7
370
    25
100
AcDbLine
 10
3.3105
 20
-0.0005474021
 30
0.0
 11
3.3105
 21
0.1106234195
 31
0.0
  0
LINE
  5
3E2
330
1F
100
AcDbEntity
  8
0
  6
Continuous
 62
     7
370
    25
100
AcDbLine
 10
2.7105
 20
-0.0005474021
 30
0.0
 11
2.7105
 21
0.1106234195
 31
0.0
  0
LINE
  5
3E3
330
1F
100
AcDbEntity
  8
0
  6
Continuous
 62
     7
370
    25
100
AcDbLine
 10
2.5105
 20
-0.0005474021
 30
0.0
 11
2.5105
 21
0.1106234195
 31
0.0
  0
LINE
  5
3E4
330
1F
100
AcDbEntity
  8
0
  6
Continuous
 62
     7
370
    25
100
AcDbLine
 10
3.2105
 20
-0.0005474021
 30
0.0
 11
3.2105
 21
0.1106234195
 31
0.0
  0
LINE
  5
3E5
330
1F
100
AcDbEntity
  8
0
  6
Continuous
 62
     7
370
    25
100
AcDbLine
 10
3.0105
 20
-0.0005474021
 30
0.0
 11
3.0105
 21
0.1106234195
 31
0.0
  0
LINE
  5
3E6
330
1F
100
AcDbEntity
  8
0
  6
Continuous
 62
     7
370
    25
100
AcDbLine
 10
2.398
 20
-0.1628025499
 30
0.0
 11
2.398
 21
-0.0016012914
 31
0.0
  0
LINE
  5
3E7
330
1F
100
AcDbEntity
  8
0
  6
Continuous
 62
     7
370
    25
100
AcDbLine
 10
3.398
 20
-0.1628039293
 30
0.0
 11
3.398
 21
-0.00160405
 31
0.0
  0
LINE
  5
3E8
330
1F
100
AcDbEntity
  8
0
  6
Continuous
 62
     7
370
    25
100
AcDbLine
 10
2.998
 20
-0.1628039293
 30
0.0
 11
2.998
 21
-0.00160405
 31
0.0
  0
LINE
  5
3E9
330
1F
100
AcDbEntity
  8
0
  6
Continuous
 62
     7
370
    25
100
AcDbLine
 10
2.698
 20
-0.1628039293
 30
0.0
 11
2.698
 21
-0.00160405
 31
0.0
  0
LINE
  5
3EA
330
1F
100
AcDbEntity
  8
0
  6
Continuous
 62
     7
370
    25
100
AcDbLine
 10
2.598
 20
-0.1628039293
 30
0.0
 11
2.598
 21
-0.00160405
 31
0.0
  0
LINE
  5
3EB
330
1F
100
AcDbEntity
  8
0
  6
Continuous
 62
     7
370
    25
100
AcDbLine
 10
2.498
 20
-0.1628039293
 30
0.0
 11
2.498
 21
-0.00160405
 31
0.0
  0
LINE
  5
3EC
330
1F
100
AcDbEntity
  8
0
  6
Continuous
 62
     7
370
    25
100
AcDbLine
 10
3.298
 20
-0.1628039293
 30
0.0
 11
3.298
 21
-0.00160405
 31
0.0
  0
LINE
  5
3ED
330
1F
100
AcDbEntity
  8
0
  6
Continuous
 62
     7
370
    25
100
AcDbLine
 10
3.098
 20
-0.1628039293
 30
0.0
 11
3.098
 21
-0.00160405
 31
0.0
  0
LINE
  5
3EE
330
1F
100
AcDbEntity
  8
0
  6
Continuous
 62
     7
370
    25
100
AcDbLine
 10
2.798
 20
-0.1628039293
 30
0.0
 11
2.798
 21
-0.00160405
 31
0.0
  0
LINE
  5
3EF
330
1F
100
AcDbEntity
  8
0
  6
Continuous
 62
     7
370
    25
100
AcDbLine
 10
3.198
 20
-0.1628039293
 30
0.0
 11
3.198
 21
-0.00160405
 31
0.0
  0
LINE
  5
3F0
330
1F
100
AcDbEntity
  8
0
  6
Continuous
 62
     7
370
    25
100
AcDbLine
 10
2.898
 20
-0.1628039293
 30
0.0
 11
2.898
 21
-0.00160405
 31
0.0
  0
LINE
  5
3F1
330
1F
100
AcDbEntity
  8
0
  6
Continuous
 62
     7
370
    25
100
AcDbLine
 10
3.3105
 20
-0.1628039293
 30
0.0
 11
3.3105
 21
-0.00160405
 31
0.0
  0
LINE
  5
3F2
330
1F
100
AcDbEntity
  8
0
  6
Continuous
 62
     7
370
    25
100
AcDbLine
 10
3.2105
 20
-0.1628039293
 30
0.0
 11
3.2105
 21
-0.00160405
 31
0.0
  0
LINE
  5
3F3
330
1F
100
AcDbEntity
  8
0
  6
Continuous
 62
     7
370
    25
100
AcDbLine
 10
3.0105
 20
-0.1628039293
 30
0.0
 11
3.0105
 21
-0.00160405
 31
0.0
  0
LINE
  5
3F4
330
1F
100
AcDbEntity
  8
0
  6
Continuous
 62
     7
370
    25
100
AcDbLine
 10
2.7105
 20
-0.1628039293
 30
0.0
 11
2.7105
 21
-0.00160405
 31
0.0
  0
LINE
  5
3F5
330
1F
100
AcDbEntity
  8
0
  6
Continuous
 62
     7
370
    25
100
AcDbLine
 10
3.1105
 20
-0.1628039293
 30
0.0
 11
3.1105
 21
-0.00160405
 31
0.0
  0
LINE
  5
3F6
330
1F
100
AcDbEntity
  8
0
  6
Continuous
 62
     7
370
    25
100
AcDbLine
 10
2.9105
 20
-0.1628039293
 30
0.0
 11
2.9105
 21
-0.00160405
 31
0.0
  0
LINE
  5
3F7
330
1F
100
AcDbEntity
  8
0
  6
Continuous
 62
     7
370
    25
100
AcDbLine
 10
2.5105
 20
-0.1628039293
 30
0.0
 11
2.5105
 21
-0.00160405
 31
0.0
  0
LINE
  5
3F8
330
1F
100
AcDbEntity
  8
0
  6
Continuous
 62
     7
370
    25
100
AcDbLine
 10
2.4105
 20
-0.1628039293
 30
0.0
 11
2.4105
 21
-0.00160405
 31
0.0
  0
LINE
  5
3F9
330
1F
100
AcDbEntity
  8
0
  6
Continuous
 62
     7
370
    25
100
AcDbLine
 10
2.8105
 20
-0.1628039293
 30
0.0
 11
2.8105
 21
-0.00160405
 31
0.0
  0
LINE
  5
3FA
330
1F
100
AcDbEntity
  8
0
  6
Continuous
 62
     7
370
    25
100
AcDbLine
 10
2.6105
 20
-0.1628039293
 30
0.0
 11
2.6105
 21
-0.00160405
 31
0.0
  0
LINE
  5
3FB
330
1F
100
AcDbEntity
  8
0
  6
Continuous
 62
     7
370
    25
100
AcDbLine
 10
1.9551619486
 20
0.1418446247
 30
0.0
 11
1.9565079838
 21
0.1415109759
 31
0.0
  0
LINE
  5
3FC
330
1F
100
AcDbEntity
  8
0
  6
Continuous
 62
     7
370
    25
100
AcDbLine
 10
2.4105
 20
0.1111577783
 30
0.0
 11
2.398
 21
0.1111577783
 31
0.0
  0
LINE
  5
3FD
330
1F
100
AcDbEntity
  8
0
  6
Continuous
 62
     7
370
    25
100
AcDbLine
 10
2.5105
 20
0.1111577783
 30
0.0
 11
2.498
 21
0.1111577783
 31
0.0
  0
LINE
  5
3FE
330
1F
100
AcDbEntity
  8
0
  6
Continuous
 62
     7
370
    25
100
AcDbLine
 10
2.6105
 20
0.1111577783
 30
0.0
 11
2.598
 21
0.1111577783
 31
0.0
  0
LINE
  5
3FF
330
1F
100
AcDbEntity
  8
0
  6
Continuous
 62
     7
370
    25
100
AcDbLine
 10
2.7105
 20
0.1111577783
 30
0.0
 11
2.698
 21
0.1111577783
 31
0.0
  0
LINE
  5
400
330
1F
100
AcDbEntity
  8
0
  6
Continuous
 62
     7
370
    25
100
AcDbLine
 10
2.8105
 20
0.1111577783
 30
0.0
 11
2.798
 21
0.1111577783
 31
0.0
  0
LINE
  5
401
330
1F
100
AcDbEntity
  8
0
  6
Continuous
 62
     7
370
    25
100
AcDbLine
 10
2.9105
 20
0.1111577783
 30
0.0
 11
2.898
 21
0.1111577783
 31
0.0
  0
LINE
  5
402
330
1F
100
AcDbEntity
  8
0
  6
Continuous
 62
     7
370
    25
100
AcDbLine
 10
3.0105
 20
0.1111577783
 30
0.0
 11
2.998
 21
0.1111577783
 31
0.0
  0
LINE
  5
403
330
1F
100
AcDbEntity
  8
0
  6
Continuous
 62
     7
370
    25
100
AcDbLine
 10
3.1105
 20
0.1111577783
 30
0.0
 11
3.098
 21
0.1111577783
 31
0.0
  0
LINE
  5
404
330
1F
100
AcDbEntity
  8
0
  6
Continuous
 62
     7
370
    25
100
AcDbLine
 10
3.2105
 20
0.1111577783
 30
0.0
 11
3.198
 21
0.1111577783
 31
0.0
  0
LINE
  5
405
330
1F
100
AcDbEntity
  8
0
  6
Continuous
 62
     7
370
    25
100
AcDbLine
 10
3.3105
 20
0.1111577783
 30
0.0
 11
3.298
 21
0.1111577783
 31
0.0
  0
LINE
  5
406
330
1F
100
AcDbEntity
  8
0
  6
Continuous
 62
     7
370
    25
100
AcDbLine
 10
3.4
 20
0.1111577783
 30
0.0
 11
3.398
 21
0.1111577783
 31
0.0
  0
LINE
  5
407
330
1F
100
AcDbEntity
  8
0
  6
Continuous
 62
     7
370
    25
100
AcDbLine
 10
3.4
 20
-0.1876745405
 30
0.0
 11
3.4
 21
0.1876745405
 31
0.0
  0
LINE
  5
408
330
1F
100
AcDbEntity
  8
0
  6
Continuous
 62
     7
370
    25
100
AcDbLine
 10
3.4
 20
0.1106234195
 30
0.0
 11
3.398
 21
0.1106234195
 31
0.0
  0
LINE
  5
409
330
1F
100
AcDbEntity
  8
0
  6
Continuous
 62
     7
370
    25
100
AcDbLine
 10
3.3105
 20
0.1106234195
 30
0.0
 11
3.298
 21
0.1106234195
 31
0.0
  0
LINE
  5
40A
330
1F
100
AcDbEntity
  8
0
  6
Continuous
 62
     7
370
    25
100
AcDbLine
 10
3.2105
 20
0.1106234195
 30
0.0
 11
3.198
 21
0.1106234195
 31
0.0
  0
LINE
  5
40B
330
1F
100
AcDbEntity
  8
0
  6
Continuous
 62
     7
370
    25
100
AcDbLine
 10
3.1105
 20
0.1106234195
 30
0.0
 11
3.098
 21
0.1106234195
 31
0.0
  0
LINE
  5
40C
330
1F
100
AcDbEntity
  8
0
  6
Continuous
 62
     7
370
    25
100
AcDbLine
 10
3.0105
 20
0.1106234195
 30
0.0
 11
2.998
 21
0.1106234195
 31
0.0
  0
LINE
  5
40D
330
1F
100
AcDbEntity
  8
0
  6
Continuous
 62
     7
370
    25
100
AcDbLine
 10
2.9105
 20
0.1106234195
 30
0.0
 11
2.898
 21
0.1106234195
 31
0.0
  0
LINE
  5
40E
330
1F
100
AcDbEntity
  8
0
  6
Continuous
 62
     7
370
    25
100
AcDbLine
 10
2.8105
 20
0.1106234195
 30
0.0
 11
2.798
 21
0.1106234195
 31
0.0
  0
LINE
  5
40F
330
1F
100
AcDbEntity
  8
0
  6
Continuous
 62
     7
370
    25
100
AcDbLine
 10
2.7105
 20
0.1106234195
 30
0.0
 11
2.698
 21
0.1106234195
 31
0.0
  0
LINE
  5
410
330
1F
100
AcDbEntity
  8
0
  6
Continuous
 62
     7
370
    25
100
AcDbLine
 10
2.6105
 20
0.1106234195
 30
0.0
 11
2.598
 21
0.1106234195
 31
0.0
  0
LINE
  5
411
330
1F
100
AcDbEntity
  8
0
  6
Continuous
 62
     7
370
    25
100
AcDbLine
 10
2.5105
 20
0.1106234195
 30
0.0
 11
2.498
 21
0.1106234195
 31
0.0
  0
LINE
  5
412
330
1F
100
AcDbEntity
  8
0
  6
Continuous
 62
     7
370
    25
100
AcDbLine
 10
2.4105
 20
0.1106234195
 30
0.0
 11
2.398
 21
0.1106234195
 31
0.0
  0
LINE
  5
413
330
1F
100
AcDbEntity
  8
0
  6
Continuous
 62
     7
370
    25
100
AcDbLine
 10
3.1685523606
 20
0.136866761
 30
0.0
 11
3.1685523606
 21
0.2390925048
 31
0.0
  0
LINE
  5
414
330
1F
100
AcDbEntity
  8
0
  6
Continuous
 62
     7
370
    25
100
AcDbLine
 10
3.1399476394
 20
0.136866761
 30
0.0
 11
3.1399476394
 21
0.2390925048
 31
0.0
  0
LINE
  5
415
330
1F
100
AcDbEntity
  8
0
  6
Continuous
 62
     7
370
    25
100
AcDbLine
 10
2.6685523606
 20
0.136866761
 30
0.0
 11
2.6685523606
 21
0.2390925048
 31
0.0
  0
LINE
  5
416
330
1F
100
AcDbEntity
  8
0
  6
Continuous
 62
     7
370
    25
100
AcDbLine
 10
2.6399476394
 20
0.136866761
 30
0.0
 11
2.6399476394
 21
0.2390925048
 31
0.0
  0
LINE
  5
417
330
1F
100
AcDbEntity
  8
0
  6
Continuous
 62
     7
370
    25
100
AcDbLine
 10
2.7685523606
 20
0.136866761
 30
0.0
 11
2.7685523606
 21
0.2390925048
 31
0.0
  0
LINE
  5
418
330
1F
100
AcDbEntity
  8
0
  6
Continuous
 62
     7
370
    25
100
AcDbLine
 10
2.7399476394
 20
0.136866761
 30
0.0
 11
2.7399476394
 21
0.2390925048
 31
0.0
  0
LINE
  5
419
330
1F
100
AcDbEntity
  8
0
  6
Continuous
 62
     7
370
    25
100
AcDbLine
 10
3.2685523606
 20
0.136866761
 30
0.0
 11
3.2685523606
 21
0.2390925048
 31
0.0
  0
LINE
  5
41A
330
1F
100
AcDbEntity
  8
0
  6
Continuous
 62
     7
370
    25
100
AcDbLine
 10
3.2399476394
 20
0.136866761
 30
0.0
 11
3.2399476394
 21
0.2390925048
 31
0.0
  0
LINE
  5
41B
330
1F
100
AcDbEntity
  8
0
  6
Continuous
 62
     7
370
    25
100
AcDbLine
 10
3.3685523606
 20
0.136866761
 30
0.0
 11
3.3685523606
 21
0.2390925048
 31
0.0
  0
LINE
  5
41C
330
1F
100
AcDbEntity
  8
0
  6
Continuous
 62
     7
370
    25
100
AcDbLine
 10
3.3399476394
 20
0.136866761
 30
0.0
 11
3.3399476394
 21
0.2390925048
 31
0.0
  0
LINE
  5
41D
330
1F
100
AcDbEntity
  8
0
  6
Continuous
 62
     7
370
    25
100
AcDbLine
 10
3.0685523606
 20
0.136866761
 30
0.0
 11
3.0685523606
 21
0.2390925048
 31
0.0
  0
LINE
  5
41E
330
1F
100
AcDbEntity
  8
0
  6
Continuous
 62
     7
370
    25
100
AcDbLine
 10
3.0399476394
 20
0.136866761
 30
0.0
 11
3.0399476394
 21
0.2390925048
 31
0.0
  0
LINE
  5
41F
330
1F
100
AcDbEntity
  8
0
  6
Continuous
 62
     7
370
    25
100
AcDbLine
 10
2.8685523606
 20
0.136866761
 30
0.0
 11
2.8685523606
 21
0.2390925048
 31
0.0
  0
LINE
  5
420
330
1F
100
AcDbEntity
  8
0
  6
Continuous
 62
     7
370
    25
100
AcDbLine
 10
2.8399476394
 20
0.136866761
 30
0.0
 11
2.8399476394
 21
0.2390925048
 31
0.0
  0
LINE
  5
421
330
1F
100
AcDbEntity
  8
0
  6
Continuous
 62
     7
370
    25
100
AcDbLine
 10
2.9685523606
 20
0.136866761
 30
0.0
 11
2.9685523606
 21
0.2390925048
 31
0.0
  0
LINE
  5
422
330
1F
100
AcDbEntity
  8
0
  6
Continuous
 62
     7
370
    25
100
AcDbLine
 10
2.9399476394
 20
0.136866761
 30
0.0
 11
2.9399476394
 21
0.2390925048
 31
0.0
  0
LINE
  5
423
330
1F
100
AcDbEntity
  8
0
  6
Continuous
 62
     7
370
    25
100
AcDbLine
 10
2.5685523606
 20
0.136866761
 30
0.0
 11
2.5685523606
 21
0.2390925048
 31
0.0
  0
LINE
  5
424
330
1F
100
AcDbEntity
  8
0
  6
Continuous
 62
     7
370
    25
100
AcDbLine
 10
2.5399476394
 20
0.136866761
 30
0.0
 11
2.5399476394
 21
0.2390925048
 31
0.0
  0
LINE
  5
425
330
1F
100
AcDbEntity
  8
0
  6
Continuous
 62
     7
370
    25
100
AcDbLine
 10
2.4685523606
 20
0.136866761
 30
0.0
 11
2.4685523606
 21
0.2390925048
 31
0.0
  0
LINE
  5
426
330
1F
100
AcDbEntity
  8
0
  6
Continuous
 62
     7
370
    25
100
AcDbLine
 10
2.4399476394
 20
0.136866761
 30
0.0
 11
2.4399476394
 21
0.2390925048
 31
0.0
  0
LINE
  5
427
330
1F
100
AcDbEntity
  8
0
  6
Continuous
 62
     7
370
    25
100
AcDbLine
 10
2.3685523606
 20
0.136866761
 30
0.0
 11
2.3685523606
 21
0.239092505
 31
0.0
  0
LINE
  5
428
330
1F
100
AcDbEntity
  8
0
  6
Continuous
 62
     7
370
    25
100
AcDbLine
 10
3.098
 20
0.1876745405
 30
0.0
 11
3.098
 21
0.1111577783
 31
0.0
  0
LINE
  5
429
330
1F
100
AcDbEntity
  8
0
  6
Continuous
 62
     7
370
    25
100
AcDbLine
 10
3.398
 20
0.1876745405
 30
0.0
 11
3.398
 21
0.1111577783
 31
0.0
  0
LINE
  5
42A
330
1F
100
AcDbEntity
  8
0
  6
Continuous
 62
     7
370
    25
100
AcDbLine
 10
3.198
 20
0.1876745405
 30
0.0
 11
3.198
 21
0.1111577783
 31
0.0
  0
LINE
  5
42B
330
1F
100
AcDbEntity
  8
0
  6
Continuous
 62
     7
370
    25
100
AcDbLine
 10
3.298
 20
0.1876745405
 30
0.0
 11
3.298
 21
0.1111577783
 31
0.0
  0
LINE
  5
42C
330
1F
100
AcDbEntity
  8
0
  6
Continuous
 62
     7
370
    25
100
AcDbLine
 10
2.898
 20
0.1876745405
 30
0.0
 11
2.898
 21
0.1111577783
 31
0.0
  0
LINE
  5
42D
330
1F
100
AcDbEntity
  8
0
  6
Continuous
 62
     7
370
    25
100
AcDbLine
 10
2.798
 20
0.1876745405
 30
0.0
 11
2.798
 21
0.1111577783
 31
0.0
  0
LINE
  5
42E
330
1F
100
AcDbEntity
  8
0
  6
Continuous
 62
     7
370
    25
100
AcDbLine
 10
2.998
 20
0.1876745405
 30
0.0
 11
2.998
 21
0.1111577783
 31
0.0
  0
LINE
  5
42F
330
1F
100
AcDbEntity
  8
0
  6
Continuous
 62
     7
370
    25
100
AcDbLine
 10
2.698
 20
0.1876745405
 30
0.0
 11
2.698
 21
0.1111577783
 31
0.0
  0
LINE
  5
430
330
1F
100
AcDbEntity
  8
0
  6
Continuous
 62
     7
370
    25
100
AcDbLine
 10
2.398
 20
0.1876745405
 30
0.0
 11
2.398
 21
0.1111577783
 31
0.0
  0
LINE
  5
431
330
1F
100
AcDbEntity
  8
0
  6
Continuous
 62
     7
370
    25
100
AcDbLine
 10
2.598
 20
0.1876745405
 30
0.0
 11
2.598
 21
0.1111577783
 31
0.0
  0
LINE
  5
432
330
1F
100
AcDbEntity
  8
0
  6
Continuous
 62
     7
370
    25
100
AcDbLine
 10
2.498
 20
0.1876745405
 30
0.0
 11
2.498
 21
0.1111577783
 31
0.0
  0
LINE
  5
433
330
1F
100
AcDbEntity
  8
0
  6
Continuous
 62
     7
370
    25
100
AcDbLine
 10
3.1105
 20
0.1876745405
 30
0.0
 11
3.1105
 21
0.1111577783
 31
0.0
  0
LINE
  5
434
330
1F
100
AcDbEntity
  8
0
  6
Continuous
 62
     7
370
    25
100
AcDbLine
 10
3.3105
 20
0.1876745405
 30
0.0
 11
3.3105
 21
0.1111577783
 31
0.0
  0
LINE
  5
435
330
1F
100
AcDbEntity
  8
0
  6
Continuous
 62
     7
370
    25
100
AcDbLine
 10
3.2105
 20
0.1876745405
 30
0.0
 11
3.2105
 21
0.1111577783
 31
0.0
  0
LINE
  5
436
330
1F
100
AcDbEntity
  8
0
  6
Continuous
 62
     7
370
    25
100
AcDbLine
 10
2.8105
 20
0.1876745405
 30
0.0
 11
2.8105
 21
0.1111577783
 31
0.0
  0
LINE
  5
437
330
1F
100
AcDbEntity
  8
0
  6
Continuous
 62
     7
370
    25
100
AcDbLine
 10
2.9105
 20
0.1876745405
 30
0.0
 11
2.9105
 21
0.1111577783
 31
0.0
  0
LINE
  5
438
330
1F
100
AcDbEntity
  8
0
  6
Continuous
 62
     7
370
    25
100
AcDbLine
 10
3.0105
 20
0.1876745405
 30
0.0
 11
3.0105
 21
0.1111577783
 31
0.0
  0
LINE
  5
439
330
1F
100
AcDbEntity
  8
0
  6
Continuous
 62
     7
370
    25
100
AcDbLine
 10
2.5105
 20
0.1876745405
 30
0.0
 11
2.5105
 21
0.1111577783
 31
0.0
  0
LINE
  5
43A
330
1F
100
AcDbEntity
  8
0
  6
Continuous
 62
     7
370
    25
100
AcDbLine
 10
2.6105
 20
0.1876745405
 30
0.0
 11
2.6105
 21
0.1111577783
 31
0.0
  0
LINE
  5
43B
330
1F
100
AcDbEntity
  8
0
  6
Continuous
 62
     7
370
    25
100
AcDbLine
 10
2.7105
 20
0.1876745405
 30
0.0
 11
2.7105
 21
0.1111577783
 31
0.0
  0
LINE
  5
43C
330
1F
100
AcDbEntity
  8
0
  6
Continuous
 62
     7
370
    25
100
AcDbLine
 10
2.4105
 20
0.1876745405
 30
0.0
 11
2.4105
 21
0.1111577783
 31
0.0
  0
LINE
  5
43D
330
1F
100
AcDbEntity
  8
0
  6
Continuous
 62
     7
370
    25
100
AcDbLine
 10
2.4105
 20
-0.0765167622
 30
0.0
 11
2.398
 21
-0.0765167622
 31
0.0
  0
LINE
  5
43E
330
1F
100
AcDbEntity
  8
0
  6
Continuous
 62
     7
370
    25
100
AcDbLine
 10
3.3105
 20
-0.0765167622
 30
0.0
 11
3.298
 21
-0.0765167622
 31
0.0
  0
LINE
  5
43F
330
1F
100
AcDbEntity
  8
0
  6
Continuous
 62
     7
370
    25
100
AcDbLine
 10
3.2105
 20
-0.0765167622
 30
0.0
 11
3.198
 21
-0.0765167622
 31
0.0
  0
LINE
  5
440
330
1F
100
AcDbEntity
  8
0
  6
Continuous
 62
     7
370
    25
100
AcDbLine
 10
2.9105
 20
-0.0765167622
 30
0.0
 11
2.898
 21
-0.0765167622
 31
0.0
  0
LINE
  5
441
330
1F
100
AcDbEntity
  8
0
  6
Continuous
 62
     7
370
    25
100
AcDbLine
 10
3.1105
 20
-0.0765167622
 30
0.0
 11
3.098
 21
-0.0765167622
 31
0.0
  0
LINE
  5
442
330
1F
100
AcDbEntity
  8
0
  6
Continuous
 62
     7
370
    25
100
AcDbLine
 10
3.0105
 20
-0.0765167622
 30
0.0
 11
2.998
 21
-0.0765167622
 31
0.0
  0
LINE
  5
443
330
1F
100
AcDbEntity
  8
0
  6
Continuous
 62
     7
370
    25
100
AcDbLine
 10
2.7105
 20
-0.0765167622
 30
0.0
 11
2.698
 21
-0.0765167622
 31
0.0
  0
LINE
  5
444
330
1F
100
AcDbEntity
  8
0
  6
Continuous
 62
     7
370
    25
100
AcDbLine
 10
3.4
 20
-0.0765167622
 30
0.0
 11
3.398
 21
-0.0765167622
 31
0.0
  0
LINE
  5
445
330
1F
100
AcDbEntity
  8
0
  6
Continuous
 62
     7
370
    25
100
AcDbLine
 10
2.8105
 20
-0.0765167622
 30
0.0
 11
2.798
 21
-0.0765167622
 31
0.0
  0
LINE
  5
446
330
1F
100
AcDbEntity
  8
0
  6
Continuous
 62
     7
370
    25
100
AcDbLine
 10
2.5105
 20
-0.0765167622
 30
0.0
 11
2.498
 21
-0.0765167622
 31
0.0
  0
LINE
  5
447
330
1F
100
AcDbEntity
  8
0
  6
Continuous
 62
     7
370
    25
100
AcDbLine
 10
2.6105
 20
-0.0765167622
 30
0.0
 11
2.598
 21
-0.0765167622
 31
0.0
  0
LINE
  5
448
330
1F
100
AcDbEntity
  8
0
  6
Continuous
 62
     7
370
    25
100
AcDbLine
 10
2.898
 20
-0.1628039293
 30
0.0
 11
2.9105
 21
-0.1628039293
 31
0.0
  0
LINE
  5
449
330
1F
100
AcDbEntity
  8
0
  6
Continuous
 62
     7
370
    25
100
AcDbLine
 10
3.198
 20
-0.1628039293
 30
0.0
 11
3.2105
 21
-0.1628039293
 31
0.0
  0
LINE
  5
44A
330
1F
100
AcDbEntity
  8
0
  6
Continuous
 62
     7
370
    25
100
AcDbLine
 10
3.098
 20
-0.1628039293
 30
0.0
 11
3.1105
 21
-0.1628039293
 31
0.0
  0
LINE
  5
44B
330
1F
100
AcDbEntity
  8
0
  6
Continuous
 62
     7
370
    25
100
AcDbLine
 10
3.298
 20
-0.1628039293
 30
0.0
 11
3.3105
 21
-0.1628039293
 31
0.0
  0
LINE
  5
44C
330
1F
100
AcDbEntity
  8
0
  6
Continuous
 62
     7
370
    25
100
AcDbLine
 10
2.998
 20
-0.1628039293
 30
0.0
 11
3.0105
 21
-0.1628039293
 31
0.0
  0
LINE
  5
44D
330
1F
100
AcDbEntity
  8
0
  6
Continuous
 62
     7
370
    25
100
AcDbLine
 10
3.398
 20
-0.1628039293
 30
0.0
 11
3.4
 21
-0.1628039293
 31
0.0
  0
LINE
  5
44E
330
1F
100
AcDbEntity
  8
0
  6
Continuous
 62
     7
370
    25
100
AcDbLine
 10
2.798
 20
-0.1628039293
 30
0.0
 11
2.8105
 21
-0.1628039293
 31
0.0
  0
LINE
  5
44F
330
1F
100
AcDbEntity
  8
0
  6
Continuous
 62
     7
370
    25
100
AcDbLine
 10
2.498
 20
-0.1628039293
 30
0.0
 11
2.5105
 21
-0.1628039293
 31
0.0
  0
LINE
  5
450
330
1F
100
AcDbEntity
  8
0
  6
Continuous
 62
     7
370
    25
100
AcDbLine
 10
2.4
 20
-0.1628039293
 30
0.0
 11
2.4105
 21
-0.1628039293
 31
0.0
  0
LINE
  5
451
330
1F
100
AcDbEntity
  8
0
  6
Continuous
 62
     7
370
    25
100
AcDbLine
 10
2.598
 20
-0.1628039293
 30
0.0
 11
2.6105
 21
-0.1628039293
 31
0.0
  0
LINE
  5
452
330
1F
100
AcDbEntity
  8
0
  6
Continuous
 62
     7
370
    25
100
AcDbLine
 10
2.698
 20
-0.1628039293
 30
0.0
 11
2.7105
 21
-0.1628039293
 31
0.0
  0
LINE
  5
453
330
1F
100
AcDbEntity
  8
0
  6
Continuous
 62
     7
370
    25
100
AcDbLine
 10
3.198
 20
0.1626432873
 30
0.0
 11
3.2105
 21
0.1626432873
 31
0.0
  0
LINE
  5
454
330
1F
100
AcDbEntity
  8
0
  6
Continuous
 62
     7
370
    25
100
AcDbLine
 10
3.298
 20
0.1626432873
 30
0.0
 11
3.3105
 21
0.1626432873
 31
0.0
  0
LINE
  5
455
330
1F
100
AcDbEntity
  8
0
  6
Continuous
 62
     7
370
    25
100
AcDbLine
 10
3.098
 20
0.1626432873
 30
0.0
 11
3.1105
 21
0.1626432873
 31
0.0
  0
LINE
  5
456
330
1F
100
AcDbEntity
  8
0
  6
Continuous
 62
     7
370
    25
100
AcDbLine
 10
3.398
 20
0.1626432873
 30
0.0
 11
3.4
 21
0.1626432873
 31
0.0
  0
LINE
  5
457
330
1F
100
AcDbEntity
  8
0
  6
Continuous
 62
     7
370
    25
100
AcDbLine
 10
2.998
 20
0.1626432873
 30
0.0
 11
3.0105
 21
0.1626432873
 31
0.0
  0
LINE
  5
458
330
1F
100
AcDbEntity
  8
0
  6
Continuous
 62
     7
370
    25
100
AcDbLine
 10
2.698
 20
0.1626432873
 30
0.0
 11
2.7105
 21
0.1626432873
 31
0.0
  0
LINE
  5
459
330
1F
100
AcDbEntity
  8
0
  6
Continuous
 62
     7
370
    25
100
AcDbLine
 10
2.798
 20
0.1626432873
 30
0.0
 11
2.8105
 21
0.1626432873
 31
0.0
  0
LINE
  5
45A
330
1F
100
AcDbEntity
  8
0
  6
Continuous
 62
     7
370
    25
100
AcDbLine
 10
2.898
 20
0.1626432873
 30
0.0
 11
2.9105
 21
0.1626432873
 31
0.0
  0
LINE
  5
45B
330
1F
100
AcDbEntity
  8
0
  6
Continuous
 62
     7
370
    25
100
AcDbLine
 10
2.598
 20
0.1626432873
 30
0.0
 11
2.6105
 21
0.1626432873
 31
0.0
  0
LINE
  5
45C
330
1F
100
AcDbEntity
  8
0
  6
Continuous
 62
     7
370
    25
100
AcDbLine
 10
2.498
 20
0.1626432873
 30
0.0
 11
2.5105
 21
0.1626432873
 31
0.0
  0
LINE
  5
45D
330
1F
100
AcDbEntity
  8
0
  6
Continuous
 62
     7
370
    25
100
AcDbLine
 10
2.4
 20
0.1626432873
 30
0.0
 11
2.4105
 21
0.1626432873
 31
0.0
  0
LINE
  5
45E
330
1F
100
AcDbEntity
  8
0
  6
Continuous
 62
     7
370
    25
100
AcDbLine
 10
2.4
 20
-0.1642473374
 30
0.0
 11
2.4
 21
-0.1628039293
 31
0.0
  0
LINE
  5
45F
330
1F
100
AcDbEntity
  8
0
  6
Continuous
 62
     7
370
    25
100
AcDbLine
 10
3.398
 20
-0.1642473374
 30
0.0
 11
3.4
 21
-0.1642473374
 31
0.0
  0
LINE
  5
460
330
1F
100
AcDbEntity
  8
0
  6
Continuous
 62
     7
370
    25
100
AcDbLine
 10
3.298
 20
-0.1642473374
 30
0.0
 11
3.3105
 21
-0.1642473374
 31
0.0
  0
LINE
  5
461
330
1F
100
AcDbEntity
  8
0
  6
Continuous
 62
     7
370
    25
100
AcDbLine
 10
3.198
 20
-0.1642473374
 30
0.0
 11
3.2105
 21
-0.1642473374
 31
0.0
  0
LINE
  5
462
330
1F
100
AcDbEntity
  8
0
  6
Continuous
 62
     7
370
    25
100
AcDbLine
 10
3.098
 20
-0.1642473374
 30
0.0
 11
3.1105
 21
-0.1642473374
 31
0.0
  0
LINE
  5
463
330
1F
100
AcDbEntity
  8
0
  6
Continuous
 62
     7
370
    25
100
AcDbLine
 10
2.998
 20
-0.1642473374
 30
0.0
 11
3.0105
 21
-0.1642473374
 31
0.0
  0
LINE
  5
464
330
1F
100
AcDbEntity
  8
0
  6
Continuous
 62
     7
370
    25
100
AcDbLine
 10
2.898
 20
-0.1642473374
 30
0.0
 11
2.9105
 21
-0.1642473374
 31
0.0
  0
LINE
  5
465
330
1F
100
AcDbEntity
  8
0
  6
Continuous
 62
     7
370
    25
100
AcDbLine
 10
2.798
 20
-0.1642473374
 30
0.0
 11
2.8105
 21
-0.1642473374
 31
0.0
  0
LINE
  5
466
330
1F
100
AcDbEntity
  8
0
  6
Continuous
 62
     7
370
    25
100
AcDbLine
 10
2.698
 20
-0.1642473374
 30
0.0
 11
2.7105
 21
-0.1642473374
 31
0.0
  0
LINE
  5
467
330
1F
100
AcDbEntity
  8
0
  6
Continuous
 62
     7
370
    25
100
AcDbLine
 10
2.598
 20
-0.1642473374
 30
0.0
 11
2.6105
 21
-0.1642473374
 31
0.0
  0
LINE
  5
468
330
1F
100
AcDbEntity
  8
0
  6
Continuous
 62
     7
370
    25
100
AcDbLine
 10
2.498
 20
-0.1642473374
 30
0.0
 11
2.5105
 21
-0.1642473374
 31
0.0
  0
LINE
  5
469
330
1F
100
AcDbEntity
  8
0
  6
Continuous
 62
     7
370
    25
100
AcDbLine
 10
2.4
 20
-0.1642473374
 30
0.0
 11
2.4105
 21
-0.1642473374
 31
0.0
  0
LINE
  5
46A
330
1F
100
AcDbEntity
  8
0
  6
Continuous
 62
     7
370
    25
100
AcDbLine
 10
2.4105
 20
-0.1876745405
 30
0.0
 11
2.398
 21
-0.1876745405
 31
0.0
  0
LINE
  5
46B
330
1F
100
AcDbEntity
  8
0
  6
Continuous
 62
     7
370
    25
100
AcDbLine
 10
2.398
 20
-0.1642459783
 30
0.0
 11
2.398
 21
-0.1876745405
 31
0.0
  0
LINE
  5
46C
330
1F
100
AcDbEntity
  8
0
  6
Continuous
 62
     7
370
    25
100
AcDbLine
 10
2.4105
 20
-0.1642473374
 30
0.0
 11
2.4105
 21
-0.1876745405
 31
0.0
  0
LINE
  5
46D
330
1F
100
AcDbEntity
  8
0
  6
Continuous
 62
     7
370
    25
100
AcDbLine
 10
2.3685523606
 20
-0.227380644
 30
0.0
 11
2.3685523606
 21
-0.2390925059
 31
0.0
  0
LINE
  5
46E
330
1F
100
AcDbEntity
  8
0
  6
Continuous
 62
     7
370
    25
100
AcDbLine
 10
2.4399476394
 20
-0.2275694818
 30
0.0
 11
2.4399476394
 21
-0.2390925059
 31
0.0
  0
LINE
  5
46F
330
1F
100
AcDbEntity
  8
0
  6
Continuous
 62
     7
370
    25
100
AcDbLine
 10
3.1105
 20
-0.1876745405
 30
0.0
 11
3.098
 21
-0.1876745405
 31
0.0
  0
LINE
  5
470
330
1F
100
AcDbEntity
  8
0
  6
Continuous
 62
     7
370
    25
100
AcDbLine
 10
3.098
 20
-0.1642473374
 30
0.0
 11
3.098
 21
-0.1876745405
 31
0.0
  0
LINE
  5
471
330
1F
100
AcDbEntity
  8
0
  6
Continuous
 62
     7
370
    25
100
AcDbLine
 10
3.1105
 20
-0.1642473374
 30
0.0
 11
3.1105
 21
-0.1876745405
 31
0.0
  0
LINE
  5
472
330
1F
100
AcDbEntity
  8
0
  6
Continuous
 62
     7
370
    25
100
AcDbLine
 10
2.6105
 20
-0.1642473374
 30
0.0
 11
2.6105
 21
-0.1876745405
 31
0.0
  0
LINE
  5
473
330
1F
100
AcDbEntity
  8
0
  6
Continuous
 62
     7
370
    25
100
AcDbLine
 10
2.6399476394
 20
-0.2275694818
 30
0.0
 11
2.6399476394
 21
-0.2390925059
 31
0.0
  0
LINE
  5
474
330
1F
100
AcDbEntity
  8
0
  6
Continuous
 62
     7
370
    25
100
AcDbLine
 10
2.6105
 20
-0.1876745405
 30
0.0
 11
2.598
 21
-0.1876745405
 31
0.0
  0
LINE
  5
475
330
1F
100
AcDbEntity
  8
0
  6
Continuous
 62
     7
370
    25
100
AcDbLine
 10
2.598
 20
-0.1642473374
 30
0.0
 11
2.598
 21
-0.1876745405
 31
0.0
  0
LINE
  5
476
330
1F
100
AcDbEntity
  8
0
  6
Continuous
 62
     7
370
    25
100
AcDbLine
 10
2.7105
 20
-0.1642473374
 30
0.0
 11
2.7105
 21
-0.1876745405
 31
0.0
  0
LINE
  5
477
330
1F
100
AcDbEntity
  8
0
  6
Continuous
 62
     7
370
    25
100
AcDbLine
 10
2.7399476394
 20
-0.2275694818
 30
0.0
 11
2.7399476394
 21
-0.2390925059
 31
0.0
  0
LINE
  5
478
330
1F
100
AcDbEntity
  8
0
  6
Continuous
 62
     7
370
    25
100
AcDbLine
 10
2.8105
 20
-0.1876745405
 30
0.0
 11
2.798
 21
-0.1876745405
 31
0.0
  0
LINE
  5
479
330
1F
100
AcDbEntity
  8
0
  6
Continuous
 62
     7
370
    25
100
AcDbLine
 10
2.798
 20
-0.1642473374
 30
0.0
 11
2.798
 21
-0.1876745405
 31
0.0
  0
LINE
  5
47A
330
1F
100
AcDbEntity
  8
0
  6
Continuous
 62
     7
370
    25
100
AcDbLine
 10
2.8105
 20
-0.1642473374
 30
0.0
 11
2.8105
 21
-0.1876745405
 31
0.0
  0
LINE
  5
47B
330
1F
100
AcDbEntity
  8
0
  6
Continuous
 62
     7
370
    25
100
AcDbLine
 10
2.7105
 20
-0.1876745405
 30
0.0
 11
2.698
 21
-0.1876745405
 31
0.0
  0
LINE
  5
47C
330
1F
100
AcDbEntity
  8
0
  6
Continuous
 62
     7
370
    25
100
AcDbLine
 10
2.698
 20
-0.1642473374
 30
0.0
 11
2.698
 21
-0.1876745405
 31
0.0
  0
LINE
  5
47D
330
1F
100
AcDbEntity
  8
0
  6
Continuous
 62
     7
370
    25
100
AcDbLine
 10
2.5105
 20
-0.1642473374
 30
0.0
 11
2.5105
 21
-0.1876745405
 31
0.0
  0
LINE
  5
47E
330
1F
100
AcDbEntity
  8
0
  6
Continuous
 62
     7
370
    25
100
AcDbLine
 10
2.5399476394
 20
-0.2275694818
 30
0.0
 11
2.5399476394
 21
-0.2390925059
 31
0.0
  0
LINE
  5
47F
330
1F
100
AcDbEntity
  8
0
  6
Continuous
 62
     7
370
    25
100
AcDbLine
 10
3.0105
 20
-0.1876745405
 30
0.0
 11
2.998
 21
-0.1876745405
 31
0.0
  0
LINE
  5
480
330
1F
100
AcDbEntity
  8
0
  6
Continuous
 62
     7
370
    25
100
AcDbLine
 10
2.998
 20
-0.1642473374
 30
0.0
 11
2.998
 21
-0.1876745405
 31
0.0
  0
LINE
  5
481
330
1F
100
AcDbEntity
  8
0
  6
Continuous
 62
     7
370
    25
100
AcDbLine
 10
3.0105
 20
-0.1642473374
 30
0.0
 11
3.0105
 21
-0.1876745405
 31
0.0
  0
LINE
  5
482
330
1F
100
AcDbEntity
  8
0
  6
Continuous
 62
     7
370
    25
100
AcDbLine
 10
2.5105
 20
-0.1876745405
 30
0.0
 11
2.498
 21
-0.1876745405
 31
0.0
  0
LINE
  5
483
330
1F
100
AcDbEntity
  8
0
  6
Continuous
 62
     7
370
    25
100
AcDbLine
 10
2.498
 20
-0.1642473374
 30
0.0
 11
2.498
 21
-0.1876745405
 31
0.0
  0
LINE
  5
484
330
1F
100
AcDbEntity
  8
0
  6
Continuous
 62
     7
370
    25
100
AcDbLine
 10
3.1399476394
 20
-0.2275694818
 30
0.0
 11
3.1399476394
 21
-0.2390925059
 31
0.0
  0
LINE
  5
485
330
1F
100
AcDbEntity
  8
0
  6
Continuous
 62
     7
370
    25
100
AcDbLine
 10
3.0399476394
 20
-0.2275694818
 30
0.0
 11
3.0399476394
 21
-0.2390925059
 31
0.0
  0
LINE
  5
486
330
1F
100
AcDbEntity
  8
0
  6
Continuous
 62
     7
370
    25
100
AcDbLine
 10
2.9105
 20
-0.1642473374
 30
0.0
 11
2.9105
 21
-0.1876745405
 31
0.0
  0
LINE
  5
487
330
1F
100
AcDbEntity
  8
0
  6
Continuous
 62
     7
370
    25
100
AcDbLine
 10
2.9399476394
 20
-0.2275694818
 30
0.0
 11
2.9399476394
 21
-0.2390925059
 31
0.0
  0
LINE
  5
488
330
1F
100
AcDbEntity
  8
0
  6
Continuous
 62
     7
370
    25
100
AcDbLine
 10
2.9105
 20
-0.1876745405
 30
0.0
 11
2.898
 21
-0.1876745405
 31
0.0
  0
LINE
  5
489
330
1F
100
AcDbEntity
  8
0
  6
Continuous
 62
     7
370
    25
100
AcDbLine
 10
2.898
 20
-0.1642473374
 30
0.0
 11
2.898
 21
-0.1876745405
 31
0.0
  0
LINE
  5
48A
330
1F
100
AcDbEntity
  8
0
  6
Continuous
 62
     7
370
    25
100
AcDbLine
 10
2.8399476394
 20
-0.2275694818
 30
0.0
 11
2.8399476394
 21
-0.2390925059
 31
0.0
  0
LINE
  5
48B
330
1F
100
AcDbEntity
  8
0
  6
Continuous
 62
     7
370
    25
100
AcDbLine
 10
3.2105
 20
-0.1642473374
 30
0.0
 11
3.2105
 21
-0.1876745405
 31
0.0
  0
LINE
  5
48C
330
1F
100
AcDbEntity
  8
0
  6
Continuous
 62
     7
370
    25
100
AcDbLine
 10
3.2399476394
 20
-0.2275694818
 30
0.0
 11
3.2399476394
 21
-0.2390925059
 31
0.0
  0
LINE
  5
48D
330
1F
100
AcDbEntity
  8
0
  6
Continuous
 62
     7
370
    25
100
AcDbLine
 10
3.3105
 20
-0.1876745405
 30
0.0
 11
3.298
 21
-0.1876745405
 31
0.0
  0
LINE
  5
48E
330
1F
100
AcDbEntity
  8
0
  6
Continuous
 62
     7
370
    25
100
AcDbLine
 10
3.298
 20
-0.1642473374
 30
0.0
 11
3.298
 21
-0.1876745405
 31
0.0
  0
LINE
  5
48F
330
1F
100
AcDbEntity
  8
0
  6
Continuous
 62
     7
370
    25
100
AcDbLine
 10
3.3105
 20
-0.1642473374
 30
0.0
 11
3.3105
 21
-0.1876745405
 31
0.0
  0
LINE
  5
490
330
1F
100
AcDbEntity
  8
0
  6
Continuous
 62
     7
370
    25
100
AcDbLine
 10
3.3399476394
 20
-0.2275694818
 30
0.0
 11
3.3399476394
 21
-0.2390925059
 31
0.0
  0
LINE
  5
491
330
1F
100
AcDbEntity
  8
0
  6
Continuous
 62
     7
370
    25
100
AcDbLine
 10
3.2105
 20
-0.1876745405
 30
0.0
 11
3.198
 21
-0.1876745405
 31
0.0
  0
LINE
  5
492
330
1F
100
AcDbEntity
  8
0
  6
Continuous
 62
     7
370
    25
100
AcDbLine
 10
3.198
 20
-0.1642473374
 30
0.0
 11
3.198
 21
-0.1876745405
 31
0.0
  0
LINE
  5
493
330
1F
100
AcDbEntity
  8
0
  6
Continuous
 62
     7
370
    25
100
AcDbLine
 10
2.4685523606
 20
-0.2275694818
 30
0.0
 11
2.4685523606
 21
-0.2390925059
 31
0.0
  0
LINE
  5
494
330
1F
100
AcDbEntity
  8
0
  6
Continuous
 62
     7
370
    25
100
AcDbLine
 10
2.5685523606
 20
-0.2275694818
 30
0.0
 11
2.5685523606
 21
-0.2390925059
 31
0.0
  0
LINE
  5
495
330
1F
100
AcDbEntity
  8
0
  6
Continuous
 62
     7
370
    25
100
AcDbLine
 10
2.6685523606
 20
-0.2275694818
 30
0.0
 11
2.6685523606
 21
-0.2390925059
 31
0.0
  0
LINE
  5
496
330
1F
100
AcDbEntity
  8
0
  6
Continuous
 62
     7
370
    25
100
AcDbLine
 10
2.8685523606
 20
-0.2275694818
 30
0.0
 11
2.8685523606
 21
-0.2390925059
 31
0.0
  0
LINE
  5
497
330
1F
100
AcDbEntity
  8
0
  6
Continuous
 62
     7
370
    25
100
AcDbLine
 10
3.2685523606
 20
-0.2275694818
 30
0.0
 11
3.2685523606
 21
-0.2390925059
 31
0.0
  0
LINE
  5
498
330
1F
100
AcDbEntity
  8
0
  6
Continuous
 62
     7
370
    25
100
AcDbLine
 10
2.7685523606
 20
-0.2275694818
 30
0.0
 11
2.7685523606
 21
-0.2390925059
 31
0.0
  0
LINE
  5
499
330
1F
100
AcDbEntity
  8
0
  6
Continuous
 62
     7
370
    25
100
AcDbLine
 10
3.1685523606
 20
-0.2275694818
 30
0.0
 11
3.1685523606
 21
-0.2390925059
 31
0.0
  0
LINE
  5
49A
330
1F
100
AcDbEntity
  8
0
  6
Continuous
 62
     7
370
    25
100
AcDbLine
 10
3.4
 20
-0.1876745405
 30
0.0
 11
3.398
 21
-0.1876745405
 31
0.0
  0
LINE
  5
49B
330
1F
100
AcDbEntity
  8
0
  6
Continuous
 62
     7
370
    25
100
AcDbLine
 10
3.398
 20
-0.1642473374
 30
0.0
 11
3.398
 21
-0.1876745405
 31
0.0
  0
LINE
  5
49C
330
1F
100
AcDbEntity
  8
0
  6
Continuous
 62
     7
370
    25
100
AcDbLine
 10
3.0685523606
 20
-0.2275694818
 30
0.0
 11
3.0685523606
 21
-0.2390925059
 31
0.0
  0
LINE
  5
49D
330
1F
100
AcDbEntity
  8
0
  6
Continuous
 62
     7
370
    25
100
AcDbLine
 10
3.3685523606
 20
-0.2275694818
 30
0.0
 11
3.3685523606
 21
-0.2390925059
 31
0.0
  0
LINE
  5
49E
330
1F
100
AcDbEntity
  8
0
  6
Continuous
 62
     7
370
    25
100
AcDbLine
 10
2.9685523606
 20
-0.2275694818
 30
0.0
 11
2.9685523606
 21
-0.2390925059
 31
0.0
  0
LINE
  5
49F
330
1F
100
AcDbEntity
  8
0
  6
Continuous
 62
     7
370
    25
100
AcDbLine
 10
1.9337876937
 20
-0.2490824032
 30
0.0
 11
1.932526567
 21
-0.24974004
 31
0.0
  0
ENDSEC
  0
SECTION
  2
OBJECTS
  0
DICTIONARY
  5
C
330
0
100
AcDbDictionary
281
     1
  3
ACAD_GROUP
350
D
  3
ACAD_LAYOUT
350
1A
  3
ACAD_MLINESTYLE
350
17
  3
ACAD_PLOTSETTINGS
350
19
  3
ACAD_PLOTSTYLENAME
350
E
  3
ACAD_SCALELIST
350
47
  3
DWGPROPS
350
4A0
  0
DICTIONARY
  5
D
102
{ACAD_REACTORS
330
C
102
}
330
C
100
AcDbDictionary
281
     1
  0
DICTIONARY
  5
1A
102
{ACAD_REACTORS
330
C
102
}
330
C
100
AcDbDictionary
281
     1
  3
Layout1
350
1E
  3
Layout2
350
26
  3
Model
350
22
  0
DICTIONARY
  5
17
102
{ACAD_REACTORS
330
C
102
}
330
C
100
AcDbDictionary
281
     1
  3
Standard
350
18
  0
DICTIONARY
  5
19
102
{ACAD_REACTORS
330
C
102
}
330
C
100
AcDbDictionary
281
     1
  0
ACDBDICTIONARYWDFLT
  5
E
102
{ACAD_REACTORS
330
C
102
}
330
C
100
AcDbDictionary
281
     1
  3
Normal
350
F
100
AcDbDictionaryWithDefault
340
F
  0
DICTIONARY
  5
47
102
{ACAD_REACTORS
330
C
102
}
330
C
100
AcDbDictionary
281
     1
  3
A0
350
48
  3
A1
350
49
  3
A2
350
4A
  3
A3
350
4B
  3
A4
350
4C
  3
A5
350
4D
  3
A6
350
4E
  3
A7
350
4F
  3
A8
350
50
  3
A9
350
51
  3
B1
350
52
  3
B2
350
53
  3
B3
350
54
  3
B4
350
55
  3
B5
350
56
  3
B6
350
57
  3
B7
350
58
  0
XRECORD
  5
4A0
102
{ACAD_REACTORS
330
C
102
}
330
C
100
AcDbXrecord
280
     1
  1
DWGPROPS COOKIE
  2

  3

  4

  6

  7

  8
bfalk
  9

300
=
301
=
302
=
303
=
304
=
305
=
306
=
307
=
308
=
309
=
 40
0.0
 41
2460294.021025509
 42
2460294.021055636
  1

 90
        0
  0
LAYOUT
  5
1E
102
{ACAD_REACTORS
330
1A
102
}
330
1A
100
AcDbPlotSettings
  1

  2
none_device
  4

  6

 40
0.0
 41
0.0
 42
0.0
 43
0.0
 44
0.0
 45
0.0
 46
0.0
 47
0.0
 48
0.0
 49
0.0
140
0.0
141
0.0
142
1.0
143
1.0
 70
   688
 72
     0
 73
     0
 74
     5
  7

 75
    16
147
1.0
148
0.0
149
0.0
100
AcDbLayout
  1
Layout1
 70
     1
 71
     1
 10
0.0
 20
0.0
 11
12.0
 21
9.0
 12
0.0
 22
0.0
 32
0.0
 14
1.0000000000E+20
 24
1.0000000000E+20
 34
1.0000000000E+20
 15
-1.0000000000E+20
 25
-1.0000000000E+20
 35
-1.0000000000E+20
146
0.0
 13
0.0
 23
0.0
 33
0.0
 16
1.0
 26
0.0
 36
0.0
 17
0.0
 27
1.0
 37
0.0
 76
     0
330
1B
  0
LAYOUT
  5
26
102
{ACAD_REACTORS
330
1A
102
}
330
1A
100
AcDbPlotSettings
  1

  2
none_device
  4

  6

 40
0.0
 41
0.0
 42
0.0
 43
0.0
 44
0.0
 45
0.0
 46
0.0
 47
0.0
 48
0.0
 49
0.0
140
0.0
141
0.0
142
1.0
143
1.0
 70
   688
 72
     0
 73
     0
 74
     5
  7

 75
    16
147
1.0
148
0.0
149
0.0
100
AcDbLayout
  1
Layout2
 70
     1
 71
     2
 10
0.0
 20
0.0
 11
0.0
 21
0.0
 12
0.0
 22
0.0
 32
0.0
 14
0.0
 24
0.0
 34
0.0
 15
0.0
 25
0.0
 35
0.0
146
0.0
 13
0.0
 23
0.0
 33
0.0
 16
1.0
 26
0.0
 36
0.0
 17
0.0
 27
1.0
 37
0.0
 76
     0
330
23
  0
LAYOUT
  5
22
102
{ACAD_REACTORS
330
1A
102
}
330
1A
100
AcDbPlotSettings
  1

  2
none_device
  4
ANSI_A_(11.00_x_8.50_Inches)
  6

 40
6.35
 41
19.05
 42
6.35000508
 43
19.05000254
 44
279.4
 45
215.9
 46
-4.95300254
 47
88.89999873
 48
0.0
 49
0.0
140
0.0
141
0.0
142
3.2029411765
143
1.0
 70
  1696
 72
     0
 73
     0
 74
     0
  7

 75
     0
147
0.5913241897
148
-39.4088153714
149
0.0
100
AcDbLayout
  1
Model
 70
     1
 71
     0
 10
0.0
 20
0.0
 11
12.0
 21
9.0
 12
0.0
 22
0.0
 32
0.0
 14
0.0
 24
-0.24985
 34
0.0
 15
3.4
 25
0.24985
 35
0.0
146
0.0
 13
0.0
 23
0.0
 33
0.0
 16
1.0
 26
0.0
 36
0.0
 17
0.0
 27
1.0
 37
0.0
 76
     0
330
1F
331
29
  0
MLINESTYLE
  5
18
102
{ACAD_REACTORS
330
17
102
}
330
17
100
AcDbMlineStyle
  2
Standard
 70
     0
  3

 62
   256
 51
90.0
 52
90.0
 71
     2
 49
0.5
 62
   256
  6
BYLAYER
 49
-0.5
 62
   256
  6
BYLAYER
  0
ACDBPLACEHOLDER
  5
F
102
{ACAD_REACTORS
330
E
102
}
330
E
  0
SCALE
  5
48
102
{ACAD_REACTORS
330
47
102
}
330
47
100
AcDbScale
 70
     0
300
1:1
140
1.0
141
1.0
290
     1
  0
SCALE
  5
49
102
{ACAD_REACTORS
330
47
102
}
330
47
100
AcDbScale
 70
     0
300
1/128" = 1'-0"
140
0.0078125
141
12.0
290
     0
  0
SCALE
  5
4A
102
{ACAD_REACTORS
330
47
102
}
330
47
100
AcDbScale
 70
     0
300
1/64" = 1'-0"
140
0.015625
141
12.0
290
     0
  0
SCALE
  5
4B
102
{ACAD_REACTORS
330
47
102
}
330
47
100
AcDbScale
 70
     0
300
1/32" = 1'-0"
140
0.03125
141
12.0
290
     0
  0
SCALE
  5
4C
102
{ACAD_REACTORS
330
47
102
}
330
47
100
AcDbScale
 70
     0
300
1/16" = 1'-0"
140
0.0625
141
12.0
290
     0
  0
SCALE
  5
4D
102
{ACAD_REACTORS
330
47
102
}
330
47
100
AcDbScale
 70
     0
300
3/32" = 1'-0"
140
0.09375
141
12.0
290
     0
  0
SCALE
  5
4E
102
{ACAD_REACTORS
330
47
102
}
330
47
100
AcDbScale
 70
     0
300
1/8" = 1'-0"
140
0.125
141
12.0
290
     0
  0
SCALE
  5
4F
102
{ACAD_REACTORS
330
47
102
}
330
47
100
AcDbScale
 70
     0
300
3/16" = 1'-0"
140
0.1875
141
12.0
290
     0
  0
SCALE
  5
50
102
{ACAD_REACTORS
330
47
102
}
330
47
100
AcDbScale
 70
     0
300
1/4" = 1'-0"
140
0.25
141
12.0
290
     0
  0
SCALE
  5
51
102
{ACAD_REACTORS
330
47
102
}
330
47
100
AcDbScale
 70
     0
300
3/8" = 1'-0"
140
0.375
141
12.0
290
     0
  0
SCALE
  5
52
102
{ACAD_REACTORS
330
47
102
}
330
47
100
AcDbScale
 70
     0
300
1/2" = 1'-0"
140
0.5
141
12.0
290
     0
  0
SCALE
  5
53
102
{ACAD_REACTORS
330
47
102
}
330
47
100
AcDbScale
 70
     0
300
3/4" = 1'-0"
140
0.75
141
12.0
290
     0
  0
SCALE
  5
54
102
{ACAD_REACTORS
330
47
102
}
330
47
100
AcDbScale
 70
     0
300
1" = 1'-0"
140
1.0
141
12.0
290
     0
  0
SCALE
  5
55
102
{ACAD_REACTORS
330
47
102
}
330
47
100
AcDbScale
 70
     0
300
1-1/2" = 1'-0"
140
1.5
141
12.0
290
     0
  0
SCALE
  5
56
102
{ACAD_REACTORS
330
47
102
}
330
47
100
AcDbScale
 70
     0
300
3" = 1'-0"
140
3.0
141
12.0
290
     0
  0
SCALE
  5
57
102
{ACAD_REACTORS
330
47
102
}
330
47
100
AcDbScale
 70
     0
300
6" = 1'-0"
140
6.0
141
12.0
290
     0
  0
SCALE
  5
58
102
{ACAD_REACTORS
330
47
102
}
330
47
100
AcDbScale
 70
     0
300
1'-0" = 1'-0"
140
12.0
141
12.0
290
     0
  0
ENDSEC
  0
EOF
