  0
SECTION
  2
HEADER
  9
$ACADVER
  1
AC1015
  9
$ACADMAINTVER
 70
     6
  9
$DWGCODEPAGE
  3
ANSI_1252
  9
$INSBASE
 10
0.0
 20
0.0
 30
0.0
  9
$EXTMIN
 10
-0.0064025279
 20
-0.2763350288
 30
0.0
  9
$EXTMAX
 10
3.5037740399
 20
0.2496655911
 30
0.0
  9
$LIMMIN
 10
0.0
 20
0.0
  9
$LIMMAX
 10
12.0
 20
9.0
  9
$ORTHOMODE
 70
     0
  9
$REGENMODE
 70
     1
  9
$FILLMODE
 70
     1
  9
$QTEXTMODE
 70
     0
  9
$MIRRTEXT
 70
     1
  9
$LTSCALE
 40
1.0
  9
$ATTMODE
 70
     1
  9
$TEXTSIZE
 40
0.1377952756
  9
$TRACEWID
 40
0.05
  9
$TEXTSTYLE
  7
Standard
  9
$CLAYER
  8
0
  9
$CELTYPE
  6
ByLayer
  9
$CECOLOR
 62
   256
  9
$CELTSCALE
 40
1.0
  9
$DISPSILH
 70
     0
  9
$DIMSCALE
 40
1.0
  9
$DIMASZ
 40
0.2362204724
  9
$DIMEXO
 40
0.0
  9
$DIMDLI
 40
0.38
  9
$DIMRND
 40
0.0
  9
$DIMDLE
 40
0.0
  9
$DIMEXE
 40
0.0393700787
  9
$DIMTP
 40
0.0
  9
$DIMTM
 40
0.0
  9
$DIMTXT
 40
0.1377952756
  9
$DIMCEN
 40
0.09
  9
$DIMTSZ
 40
0.0
  9
$DIMTOL
 70
     0
  9
$DIMLIM
 70
     0
  9
$DIMTIH
 70
     1
  9
$DIMTOH
 70
     1
  9
$DIMSE1
 70
     0
  9
$DIMSE2
 70
     0
  9
$DIMTAD
 70
     1
  9
$DIMZIN
 70
     0
  9
$DIMBLK
  1

  9
$DIMASO
 70
     1
  9
$DIMSHO
 70
     1
  9
$DIMPOST
  1

  9
$DIMAPOST
  1

  9
$DIMALT
 70
     0
  9
$DIMALTD
 70
     2
  9
$DIMALTF
 40
25.4
  9
$DIMLFAC
 40
1.0
  9
$DIMTOFL
 70
     0
  9
$DIMTVP
 40
0.0
  9
$DIMTIX
 70
     0
  9
$DIMSOXD
 70
     0
  9
$DIMSAH
 70
     0
  9
$DIMBLK1
  1

  9
$DIMBLK2
  1

  9
$DIMSTYLE
  2
Standard
  9
$DIMCLRD
 70
     0
  9
$DIMCLRE
 70
     0
  9
$DIMCLRT
 70
     0
  9
$DIMTFAC
 40
1.0
  9
$DIMGAP
 40
0.06
  9
$DIMJUST
 70
     0
  9
$DIMSD1
 70
     0
  9
$DIMSD2
 70
     0
  9
$DIMTOLJ
 70
     1
  9
$DIMTZIN
 70
     0
  9
$DIMALTZ
 70
     0
  9
$DIMALTTZ
 70
     0
  9
$DIMUPT
 70
     0
  9
$DIMDEC
 70
     3
  9
$DIMTDEC
 70
     3
  9
$DIMALTU
 70
     2
  9
$DIMALTTD
 70
     2
  9
$DIMTXSTY
  7
Standard
  9
$DIMAUNIT
 70
     0
  9
$DIMADEC
 70
     2
  9
$DIMALTRND
 40
0.0
  9
$DIMAZIN
 70
     0
  9
$DIMDSEP
 70
    46
  9
$DIMATFIT
 70
     3
  9
$DIMFRAC
 70
     0
  9
$DIMLDRBLK
  1

  9
$DIMLUNIT
 70
     2
  9
$DIMLWD
 70
    -2
  9
$DIMLWE
 70
    -2
  9
$DIMTMOVE
 70
     0
  9
$LUNITS
 70
     2
  9
$LUPREC
 70
     3
  9
$SKETCHINC
 40
0.1
  9
$FILLETRAD
 40
0.5
  9
$AUNITS
 70
     0
  9
$AUPREC
 70
     2
  9
$MENU
  1
.
  9
$ELEVATION
 40
0.0
  9
$PELEVATION
 40
0.0
  9
$THICKNESS
 40
0.0
  9
$LIMCHECK
 70
     0
  9
$CHAMFERA
 40
0.0
  9
$CHAMFERB
 40
0.0
  9
$CHAMFERC
 40
0.0
  9
$CHAMFERD
 40
0.0
  9
$SKPOLY
 70
     0
  9
$TDCREATE
 40
2459467.529415984
  9
$TDUCREATE
 40
2459467.821082651
  9
$TDUPDATE
 40
2459467.529441343
  9
$TDUUPDATE
 40
2459467.821108009
  9
$TDINDWG
 40
0.0000000116
  9
$TDUSRTIMER
 40
0.0000000116
  9
$USRTIMER
 70
     1
  9
$ANGBASE
 50
0.0
  9
$ANGDIR
 70
     0
  9
$PDMODE
 70
     0
  9
$PDSIZE
 40
-1.0
  9
$PLINEWID
 40
0.0
  9
$SPLFRAME
 70
     0
  9
$SPLINETYPE
 70
     6
  9
$SPLINESEGS
 70
     8
  9
$HANDSEED
  5
251
  9
$SURFTAB1
 70
     6
  9
$SURFTAB2
 70
     6
  9
$SURFTYPE
 70
     6
  9
$SURFU
 70
     6
  9
$SURFV
 70
     6
  9
$UCSBASE
  2

  9
$UCSNAME
  2

  9
$UCSORG
 10
0.0
 20
0.0
 30
0.0
  9
$UCSXDIR
 10
1.0
 20
0.0
 30
0.0
  9
$UCSYDIR
 10
0.0
 20
1.0
 30
0.0
  9
$UCSORTHOREF
  2

  9
$UCSORTHOVIEW
 70
     0
  9
$UCSORGTOP
 10
0.0
 20
0.0
 30
0.0
  9
$UCSORGBOTTOM
 10
0.0
 20
0.0
 30
0.0
  9
$UCSORGLEFT
 10
0.0
 20
0.0
 30
0.0
  9
$UCSORGRIGHT
 10
0.0
 20
0.0
 30
0.0
  9
$UCSORGFRONT
 10
0.0
 20
0.0
 30
0.0
  9
$UCSORGBACK
 10
0.0
 20
0.0
 30
0.0
  9
$PUCSBASE
  2

  9
$PUCSNAME
  2

  9
$PUCSORG
 10
0.0
 20
0.0
 30
0.0
  9
$PUCSXDIR
 10
1.0
 20
0.0
 30
0.0
  9
$PUCSYDIR
 10
0.0
 20
1.0
 30
0.0
  9
$PUCSORTHOREF
  2

  9
$PUCSORTHOVIEW
 70
     0
  9
$PUCSORGTOP
 10
0.0
 20
0.0
 30
0.0
  9
$PUCSORGBOTTOM
 10
0.0
 20
0.0
 30
0.0
  9
$PUCSORGLEFT
 10
0.0
 20
0.0
 30
0.0
  9
$PUCSORGRIGHT
 10
0.0
 20
0.0
 30
0.0
  9
$PUCSORGFRONT
 10
0.0
 20
0.0
 30
0.0
  9
$PUCSORGBACK
 10
0.0
 20
0.0
 30
0.0
  9
$USERI1
 70
     0
  9
$USERI2
 70
     0
  9
$USERI3
 70
     0
  9
$USERI4
 70
     0
  9
$USERI5
 70
     0
  9
$USERR1
 40
0.0
  9
$USERR2
 40
0.0
  9
$USERR3
 40
0.0
  9
$USERR4
 40
0.0
  9
$USERR5
 40
0.0
  9
$WORLDVIEW
 70
     1
  9
$SHADEDGE
 70
     3
  9
$SHADEDIF
 70
    70
  9
$TILEMODE
 70
     1
  9
$MAXACTVP
 70
    64
  9
$PINSBASE
 10
0.0
 20
0.0
 30
0.0
  9
$PLIMCHECK
 70
     0
  9
$PEXTMIN
 10
1.0000000000E+20
 20
1.0000000000E+20
 30
1.0000000000E+20
  9
$PEXTMAX
 10
-1.0000000000E+20
 20
-1.0000000000E+20
 30
-1.0000000000E+20
  9
$PLIMMIN
 10
0.0
 20
0.0
  9
$PLIMMAX
 10
12.0
 20
9.0
  9
$UNITMODE
 70
     0
  9
$VISRETAIN
 70
     1
  9
$PLINEGEN
 70
     0
  9
$PSLTSCALE
 70
     1
  9
$TREEDEPTH
 70
  3020
  9
$CMLSTYLE
  2
Standard
  9
$CMLJUST
 70
     0
  9
$CMLSCALE
 40
1.0
  9
$PROXYGRAPHICS
 70
     1
  9
$MEASUREMENT
 70
     0
  9
$CELWEIGHT
370
    -1
  9
$ENDCAPS
280
     0
  9
$JOINSTYLE
280
     0
  9
$LWDISPLAY
290
     1
  9
$INSUNITS
 70
     1
  9
$HYPERLINKBASE
  1

  9
$STYLESHEET
  1

  9
$XEDIT
290
     1
  9
$CEPSNTYPE
380
     0
  9
$PSTYLEMODE
290
     1
  9
$FINGERPRINTGUID
  2
{54badc6c-4629-4e84-bcea-1e876a11dafb}
  9
$VERSIONGUID
  2
{FAEB1C32-E019-11D5-929B-00C0DF256EC4}
  9
$EXTNAMES
290
     1
  9
$PSVPSCALE
 40
0.0
  9
$OLESTARTUP
290
     0
  0
ENDSEC
  0
SECTION
  2
CLASSES
  0
CLASS
  1
ACDBDICTIONARYWDFLT
  2
AcDbDictionaryWithDefault
  3
ObjectDBX Classes
 90
        0
280
     0
281
     0
  0
CLASS
  1
VISUALSTYLE
  2
AcDbVisualStyle
  3
ObjectDBX Classes
 90
     4095
280
     0
281
     0
  0
CLASS
  1
MATERIAL
  2
AcDbMaterial
  3
ObjectDBX Classes
 90
     1153
280
     0
281
     0
  0
CLASS
  1
SCALE
  2
AcDbScale
  3
ObjectDBX Classes
 90
     1153
280
     0
281
     0
  0
CLASS
  1
TABLESTYLE
  2
AcDbTableStyle
  3
ObjectDBX Classes
 90
     4095
280
     0
281
     0
  0
CLASS
  1
MLEADERSTYLE
  2
AcDbMLeaderStyle
  3
ACDB_MLEADERSTYLE_CLASS
 90
     4095
280
     0
281
     0
  0
CLASS
  1
SUN
  2
AcDbSun
  3
SCENEOE
 90
     1153
280
     0
281
     0
  0
CLASS
  1
ACDBPLACEHOLDER
  2
AcDbPlaceHolder
  3
ObjectDBX Classes
 90
        0
280
     0
281
     0
  0
CLASS
  1
LAYOUT
  2
AcDbLayout
  3
ObjectDBX Classes
 90
        0
280
     0
281
     0
  0
ENDSEC
  0
SECTION
  2
TABLES
  0
TABLE
  2
VPORT
  5
8
330
0
100
AcDbSymbolTable
 70
     1
  0
VPORT
  5
29
330
8
100
AcDbSymbolTableRecord
100
AcDbViewportTableRecord
  2
*Active
 70
     0
 10
0.0
 20
0.0
 11
1.0
 21
1.0
 12
1.748685756
 22
-0.0133347188
 13
0.0
 23
0.0
 14
0.5
 24
0.5
 15
0.5
 25
0.5
 16
0.0
 26
0.0
 36
1.0
 17
0.0
 27
0.0
 37
0.0
 40
0.5365206323
 41
6.6733316181
 42
50.0
 43
0.0
 44
0.0
 50
0.0
 51
0.0
 71
     0
 72
   100
 73
     1
 74
     3
 75
     0
 76
     0
 77
     0
 78
     0
281
     0
 65
     1
110
0.0
120
0.0
130
0.0
111
1.0
121
0.0
131
0.0
112
0.0
122
1.0
132
0.0
 79
     0
146
0.0
  0
ENDTAB
  0
TABLE
  2
LTYPE
  5
5
330
0
100
AcDbSymbolTable
 70
     6
  0
LTYPE
  5
14
330
5
100
AcDbSymbolTableRecord
100
AcDbLinetypeTableRecord
  2
ByBlock
 70
     0
  3

 72
    65
 73
     0
 40
0.0
  0
LTYPE
  5
15
330
5
100
AcDbSymbolTableRecord
100
AcDbLinetypeTableRecord
  2
ByLayer
 70
     0
  3

 72
    65
 73
     0
 40
0.0
  0
LTYPE
  5
16
330
5
100
AcDbSymbolTableRecord
100
AcDbLinetypeTableRecord
  2
Continuous
 70
     0
  3
Solid line
 72
    65
 73
     0
 40
0.0
  0
LTYPE
  5
6E
330
5
100
AcDbSymbolTableRecord
100
AcDbLinetypeTableRecord
  2
HIDDEN
 70
     0
  3
Hidden __ __ __ __ __ __ __ __ __ __ __ __ __ __
 72
    65
 73
     2
 40
0.075
 49
0.05
 74
     0
 49
-0.025
 74
     0
  0
LTYPE
  5
6F
330
5
100
AcDbSymbolTableRecord
100
AcDbLinetypeTableRecord
  2
PHANTOM
 70
     0
  3
Phantom ______  __  __  ______  __  __  ______
 72
    65
 73
     6
 40
0.5
 49
0.25
 74
     0
 49
-0.05
 74
     0
 49
0.05
 74
     0
 49
-0.05
 74
     0
 49
0.05
 74
     0
 49
-0.05
 74
     0
  0
LTYPE
  5
70
330
5
100
AcDbSymbolTableRecord
100
AcDbLinetypeTableRecord
  2
CENTER
 70
     0
  3
Center ____ _ ____ _ ____ _ ____ _ ____ _ ____
 72
    65
 73
     4
 40
0.4
 49
0.25
 74
     0
 49
-0.05
 74
     0
 49
0.05
 74
     0
 49
-0.05
 74
     0
  0
LTYPE
  5
71
330
5
100
AcDbSymbolTableRecord
100
AcDbLinetypeTableRecord
  2
CENTERX2
 70
     0
  3
Center (2x) ________  __  ________  __  _____
 72
    65
 73
     4
 40
0.8
 49
0.5
 74
     0
 49
-0.1
 74
     0
 49
0.1
 74
     0
 49
-0.1
 74
     0
  0
LTYPE
  5
72
330
5
100
AcDbSymbolTableRecord
100
AcDbLinetypeTableRecord
  2
DOT2
 70
     0
  3
Dot (.5x) ........................................
 72
    65
 73
     2
 40
0.025
 49
0.0
 74
     0
 49
-0.025
 74
     0
  0
ENDTAB
  0
TABLE
  2
LAYER
  5
2
330
0
100
AcDbSymbolTable
 70
     1
  0
LAYER
  5
10
330
2
100
AcDbSymbolTableRecord
100
AcDbLayerTableRecord
  2
0
 70
     0
 62
     7
  6
Continuous
370
    -3
390
F
  0
ENDTAB
  0
TABLE
  2
STYLE
  5
3
330
0
100
AcDbSymbolTable
 70
     1
  0
STYLE
  5
11
330
3
100
AcDbSymbolTableRecord
100
AcDbTextStyleTableRecord
  2
Standard
 70
     0
 40
0.0
 41
1.0
 50
0.0
 71
     0
 42
0.1377952756
  3
txt
  4

  0
ENDTAB
  0
TABLE
  2
VIEW
  5
6
330
0
100
AcDbSymbolTable
 70
     0
  0
ENDTAB
  0
TABLE
  2
UCS
  5
7
330
0
100
AcDbSymbolTable
 70
     0
  0
ENDTAB
  0
TABLE
  2
APPID
  5
9
330
0
100
AcDbSymbolTable
 70
     1
  0
APPID
  5
12
330
9
100
AcDbSymbolTableRecord
100
AcDbRegAppTableRecord
  2
ACAD
 70
     0
  0
ENDTAB
  0
TABLE
  2
DIMSTYLE
  5
A
330
0
100
AcDbSymbolTable
 70
     1
100
AcDbDimStyleTable
  0
DIMSTYLE
105
27
330
A
100
AcDbSymbolTableRecord
100
AcDbDimStyleTableRecord
  2
Standard
 70
     0
178
     0
340
11
  0
ENDTAB
  0
TABLE
  2
BLOCK_RECORD
  5
1
330
0
100
AcDbSymbolTable
 70
     1
  0
BLOCK_RECORD
  5
1F
330
1
100
AcDbSymbolTableRecord
100
AcDbBlockTableRecord
  2
*Model_Space
340
22
  0
BLOCK_RECORD
  5
1B
330
1
100
AcDbSymbolTableRecord
100
AcDbBlockTableRecord
  2
*Paper_Space
340
1E
  0
BLOCK_RECORD
  5
23
330
1
100
AcDbSymbolTableRecord
100
AcDbBlockTableRecord
  2
*Paper_Space0
340
26
  0
ENDTAB
  0
ENDSEC
  0
SECTION
  2
BLOCKS
  0
BLOCK
  5
20
330
1F
100
AcDbEntity
  8
0
100
AcDbBlockBegin
  2
*Model_Space
 70
     0
 10
0.0
 20
0.0
 30
0.0
  3
*Model_Space
  1

  0
ENDBLK
  5
21
330
1F
100
AcDbEntity
  8
0
100
AcDbBlockEnd
  0
BLOCK
  5
1C
330
1B
100
AcDbEntity
 67
     1
  8
0
100
AcDbBlockBegin
  2
*Paper_Space
 70
     0
 10
0.0
 20
0.0
 30
0.0
  3
*Paper_Space
  1

  0
ENDBLK
  5
1D
330
1B
100
AcDbEntity
 67
     1
  8
0
100
AcDbBlockEnd
  0
BLOCK
  5
24
330
23
100
AcDbEntity
  8
0
100
AcDbBlockBegin
  2
*Paper_Space0
 70
     0
 10
0.0
 20
0.0
 30
0.0
  3
*Paper_Space0
  1

  0
ENDBLK
  5
25
330
23
100
AcDbEntity
  8
0
100
AcDbBlockEnd
  0
ENDSEC
  0
SECTION
  2
ENTITIES
  0
LWPOLYLINE
  5
F3
330
1F
100
AcDbEntity
  8
0
  6
Continuous
 62
     7
370
    25
100
AcDbPolyline
 90
       14
 70
   128
 43
0.0
 10
3.4641936953
 20
-0.1234547404
 10
3.4642219242
 20
-0.1456624626
 10
3.4643063305
 20
-0.1667241024
 10
3.4644460753
 20
-0.1864303399
 10
3.4646397697
 20
-0.2045853255
 10
3.4648854888
 20
-0.2210086268
 10
3.4651807903
 20
-0.2355370218
 10
3.4655227396
 20
-0.2480261206
 10
3.4659079382
 20
-0.258351801
 10
3.4663325577
 20
-0.2664114418
 10
3.4667923781
 20
-0.2721249427
 10
3.4672828296
 20
-0.2754355202
 10
3.4677990378
 20
-0.2763102724
 10
3.4679214022
 20
-0.2761646065
  0
LWPOLYLINE
  5
F4
330
1F
100
AcDbEntity
  8
0
  6
Continuous
 62
     7
370
    25
100
AcDbPolyline
 90
       22
 70
   128
 43
0.0
 10
3.4722208212
 20
0.215472297
 10
3.4722108723
 20
0.2154896175
 10
3.4716836956
 20
0.2151416777
 10
3.4711385379
 20
0.2123539866
 10
3.470580817
 20
0.2071542496
 10
3.470016076
 20
0.1995941439
 10
3.4694499274
 20
0.1897488053
 10
3.468887998
 20
0.1777160813
 10
3.4683358724
 20
0.1636155583
 10
3.4677990378
 20
0.1475873738
 10
3.4672828296
 20
0.129790823
 10
3.4667923781
 20
0.1104027761
 10
3.4663325577
 20
0.0896159202
 10
3.4659079382
 20
0.0676368444
 10
3.4655227396
 20
0.0446839866
 10
3.4651807903
 20
0.0209854626
 10
3.4648854888
 20
-0.0032232009
 10
3.4646397697
 20
-0.0277014075
 10
3.4644460753
 20
-0.0522058816
 10
3.4643063305
 20
-0.0764930869
 10
3.4642219242
 20
-0.1003216461
 10
3.4641936953
 20
-0.1234547404
  0
LWPOLYLINE
  5
FB
330
1F
100
AcDbEntity
  8
0
  6
Continuous
 62
     7
370
    25
100
AcDbPolyline
 90
       14
 70
   128
 43
0.0
 10
3.3927841715
 20
-0.1228302562
 10
3.3928124005
 20
-0.1450379784
 10
3.3928968068
 20
-0.1660996183
 10
3.3930365516
 20
-0.1858058557
 10
3.393230246
 20
-0.2039608413
 10
3.393475965
 20
-0.2203841427
 10
3.3937712666
 20
-0.2349125376
 10
3.3941132159
 20
-0.2474016364
 10
3.3944984144
 20
-0.2577273169
 10
3.3949230339
 20
-0.2657869577
 10
3.3953828544
 20
-0.2715004585
 10
3.3958733059
 20
-0.274811036
 10
3.396389514
 20
-0.2756857882
 10
3.3965118785
 20
-0.2755401223
  0
LWPOLYLINE
  5
FC
330
1F
100
AcDbEntity
  8
0
  6
Continuous
 62
     7
370
    25
100
AcDbPolyline
 90
       22
 70
   128
 43
0.0
 10
3.4008112974
 20
0.2160967812
 10
3.4008013486
 20
0.2161141017
 10
3.4002741719
 20
0.2157661619
 10
3.3997290141
 20
0.2129784708
 10
3.3991712933
 20
0.2077787338
 10
3.3986065522
 20
0.2002186281
 10
3.3980404037
 20
0.1903732895
 10
3.3974784742
 20
0.1783405654
 10
3.3969263486
 20
0.1642400425
 10
3.396389514
 20
0.148211858
 10
3.3958733059
 20
0.1304153072
 10
3.3953828544
 20
0.1110272603
 10
3.3949230339
 20
0.0902404044
 10
3.3944984144
 20
0.0682613286
 10
3.3941132159
 20
0.0453084708
 10
3.3937712666
 20
0.0216099468
 10
3.393475965
 20
-0.0025987167
 10
3.393230246
 20
-0.0270769233
 10
3.3930365516
 20
-0.0515813974
 10
3.3928968068
 20
-0.0758686027
 10
3.3928124005
 20
-0.0996971619
 10
3.3927841715
 20
-0.1228302562
  0
LWPOLYLINE
  5
103
330
1F
100
AcDbEntity
  8
0
  6
Continuous
 62
     7
370
    25
100
AcDbPolyline
 90
       14
 70
   128
 43
0.0
 10
3.3213746478
 20
-0.122205772
 10
3.3214028767
 20
-0.1444134943
 10
3.321487283
 20
-0.1654751341
 10
3.3216270278
 20
-0.1851813716
 10
3.3218207222
 20
-0.2033363572
 10
3.3220664413
 20
-0.2197596585
 10
3.3223617428
 20
-0.2342880534
 10
3.3227036921
 20
-0.2467771523
 10
3.3230888907
 20
-0.2571028327
 10
3.3235135102
 20
-0.2651624735
 10
3.3239733306
 20
-0.2708759743
 10
3.3244637821
 20
-0.2741865519
 10
3.3249799903
 20
-0.2750613041
 10
3.3251023547
 20
-0.2749156382
  0
LWPOLYLINE
  5
104
330
1F
100
AcDbEntity
  8
0
  6
Continuous
 62
     7
370
    25
100
AcDbPolyline
 90
       22
 70
   128
 43
0.0
 10
3.3294017737
 20
0.2167212653
 10
3.3293918248
 20
0.2167385859
 10
3.3288646481
 20
0.2163906461
 10
3.3283194904
 20
0.213602955
 10
3.3277617695
 20
0.2084032179
 10
3.3271970285
 20
0.2008431122
 10
3.3266308799
 20
0.1909977737
 10
3.3260689505
 20
0.1789650496
 10
3.3255168248
 20
0.1648645266
 10
3.3249799903
 20
0.1488363421
 10
3.3244637821
 20
0.1310397914
 10
3.3239733306
 20
0.1116517445
 10
3.3235135102
 20
0.0908648885
 10
3.3230888907
 20
0.0688858127
 10
3.3227036921
 20
0.0459329549
 10
3.3223617428
 20
0.022234431
 10
3.3220664413
 20
-0.0019742326
 10
3.3218207222
 20
-0.0264524391
 10
3.3216270278
 20
-0.0509569133
 10
3.321487283
 20
-0.0752441185
 10
3.3214028767
 20
-0.0990726778
 10
3.3213746478
 20
-0.122205772
  0
LWPOLYLINE
  5
10B
330
1F
100
AcDbEntity
  8
0
  6
Continuous
 62
     7
370
    25
100
AcDbPolyline
 90
       14
 70
   128
 43
0.0
 10
3.249965124
 20
-0.1215812879
 10
3.249993353
 20
-0.1437890101
 10
3.2500777593
 20
-0.1648506499
 10
3.2502175041
 20
-0.1845568874
 10
3.2504111985
 20
-0.202711873
 10
3.2506569175
 20
-0.2191351743
 10
3.2509522191
 20
-0.2336635693
 10
3.2512941684
 20
-0.2461526681
 10
3.2516793669
 20
-0.2564783486
 10
3.2521039864
 20
-0.2645379894
 10
3.2525638069
 20
-0.2702514902
 10
3.2530542583
 20
-0.2735620677
 10
3.2535704665
 20
-0.2744368199
 10
3.2536928309
 20
-0.274291154
  0
LWPOLYLINE
  5
10C
330
1F
100
AcDbEntity
  8
0
  6
Continuous
 62
     7
370
    25
100
AcDbPolyline
 90
       22
 70
   128
 43
0.0
 10
3.2579922499
 20
0.2173457495
 10
3.2579823011
 20
0.21736307
 10
3.2574551244
 20
0.2170151302
 10
3.2569099666
 20
0.2142274391
 10
3.2563522458
 20
0.2090277021
 10
3.2557875047
 20
0.2014675964
 10
3.2552213562
 20
0.1916222578
 10
3.2546594267
 20
0.1795895338
 10
3.2541073011
 20
0.1654890108
 10
3.2535704665
 20
0.1494608263
 10
3.2530542583
 20
0.1316642755
 10
3.2525638069
 20
0.1122762286
 10
3.2521039864
 20
0.0914893727
 10
3.2516793669
 20
0.0695102969
 10
3.2512941684
 20
0.0465574391
 10
3.2509522191
 20
0.0228589151
 10
3.2506569175
 20
-0.0013497484
 10
3.2504111985
 20
-0.025827955
 10
3.2502175041
 20
-0.0503324291
 10
3.2500777593
 20
-0.0746196344
 10
3.249993353
 20
-0.0984481936
 10
3.249965124
 20
-0.1215812879
  0
LWPOLYLINE
  5
113
330
1F
100
AcDbEntity
  8
0
  6
Continuous
 62
     7
370
    25
100
AcDbPolyline
 90
       14
 70
   128
 43
0.0
 10
3.1785556003
 20
-0.1209568037
 10
3.1785838292
 20
-0.1431645259
 10
3.1786682355
 20
-0.1642261658
 10
3.1788079803
 20
-0.1839324032
 10
3.1790016747
 20
-0.2020873888
 10
3.1792473937
 20
-0.2185106902
 10
3.1795426953
 20
-0.2330390851
 10
3.1798846446
 20
-0.2455281839
 10
3.1802698431
 20
-0.2558538644
 10
3.1806944627
 20
-0.2639135052
 10
3.1811542831
 20
-0.269627006
 10
3.1816447346
 20
-0.2729375835
 10
3.1821609428
 20
-0.2738123357
 10
3.1822833072
 20
-0.2736666698
  0
LWPOLYLINE
  5
114
330
1F
100
AcDbEntity
  8
0
  6
Continuous
 62
     7
370
    25
100
AcDbPolyline
 90
       22
 70
   128
 43
0.0
 10
3.1865827262
 20
0.2179702337
 10
3.1865727773
 20
0.2179875542
 10
3.1860456006
 20
0.2176396144
 10
3.1855004428
 20
0.2148519233
 10
3.184942722
 20
0.2096521862
 10
3.184377981
 20
0.2020920806
 10
3.1838118324
 20
0.192246742
 10
3.183249903
 20
0.1802140179
 10
3.1826977773
 20
0.166113495
 10
3.1821609428
 20
0.1500853105
 10
3.1816447346
 20
0.1322887597
 10
3.1811542831
 20
0.1129007128
 10
3.1806944627
 20
0.0921138569
 10
3.1802698431
 20
0.070134781
 10
3.1798846446
 20
0.0471819232
 10
3.1795426953
 20
0.0234833993
 10
3.1792473937
 20
-0.0007252643
 10
3.1790016747
 20
-0.0252034708
 10
3.1788079803
 20
-0.0497079449
 10
3.1786682355
 20
-0.0739951502
 10
3.1785838292
 20
-0.0978237094
 10
3.1785556003
 20
-0.1209568037
  0
LWPOLYLINE
  5
11B
330
1F
100
AcDbEntity
  8
0
  6
Continuous
 62
     7
370
    25
100
AcDbPolyline
 90
       14
 70
   128
 43
0.0
 10
3.1071460765
 20
-0.1203323195
 10
3.1071743055
 20
-0.1425400418
 10
3.1072587118
 20
-0.1636016816
 10
3.1073984565
 20
-0.1833079191
 10
3.107592151
 20
-0.2014629047
 10
3.10783787
 20
-0.217886206
 10
3.1081331716
 20
-0.2324146009
 10
3.1084751208
 20
-0.2449036998
 10
3.1088603194
 20
-0.2552293802
 10
3.1092849389
 20
-0.263289021
 10
3.1097447594
 20
-0.2690025219
 10
3.1102352108
 20
-0.2723130994
 10
3.110751419
 20
-0.2731878516
 10
3.1108737834
 20
-0.2730421857
  0
LWPOLYLINE
  5
11C
330
1F
100
AcDbEntity
  8
0
  6
Continuous
 62
     7
370
    25
100
AcDbPolyline
 90
       22
 70
   128
 43
0.0
 10
3.1151732024
 20
0.2185947178
 10
3.1151632535
 20
0.2186120384
 10
3.1146360769
 20
0.2182640985
 10
3.1140909191
 20
0.2154764075
 10
3.1135331982
 20
0.2102766704
 10
3.1129684572
 20
0.2027165647
 10
3.1124023087
 20
0.1928712262
 10
3.1118403792
 20
0.1808385021
 10
3.1112882536
 20
0.1667379791
 10
3.110751419
 20
0.1507097946
 10
3.1102352108
 20
0.1329132439
 10
3.1097447594
 20
0.113525197
 10
3.1092849389
 20
0.092738341
 10
3.1088603194
 20
0.0707592652
 10
3.1084751208
 20
0.0478064074
 10
3.1081331716
 20
0.0241078835
 10
3.10783787
 20
-0.0001007801
 10
3.107592151
 20
-0.0245789866
 10
3.1073984565
 20
-0.0490834608
 10
3.1072587118
 20
-0.0733706661
 10
3.1071743055
 20
-0.0971992253
 10
3.1071460765
 20
-0.1203323195
  0
LWPOLYLINE
  5
123
330
1F
100
AcDbEntity
  8
0
  6
Continuous
 62
     7
370
    25
100
AcDbPolyline
 90
       14
 70
   128
 43
0.0
 10
3.0357365527
 20
-0.1197078354
 10
3.0357647817
 20
-0.1419155576
 10
3.035849188
 20
-0.1629771975
 10
3.0359889328
 20
-0.1826834349
 10
3.0361826272
 20
-0.2008384205
 10
3.0364283462
 20
-0.2172617218
 10
3.0367236478
 20
-0.2317901168
 10
3.0370655971
 20
-0.2442792156
 10
3.0374507956
 20
-0.2546048961
 10
3.0378754151
 20
-0.2626645369
 10
3.0383352356
 20
-0.2683780377
 10
3.0388256871
 20
-0.2716886152
 10
3.0393418952
 20
-0.2725633674
 10
3.0394642597
 20
-0.2724177015
  0
LWPOLYLINE
  5
124
330
1F
100
AcDbEntity
  8
0
  6
Continuous
 62
     7
370
    25
100
AcDbPolyline
 90
       22
 70
   128
 43
0.0
 10
3.0437636786
 20
0.219219202
 10
3.0437537298
 20
0.2192365225
 10
3.0432265531
 20
0.2188885827
 10
3.0426813953
 20
0.2161008916
 10
3.0421236745
 20
0.2109011546
 10
3.0415589335
 20
0.2033410489
 10
3.0409927849
 20
0.1934957103
 10
3.0404308554
 20
0.1814629863
 10
3.0398787298
 20
0.1673624633
 10
3.0393418952
 20
0.1513342788
 10
3.0388256871
 20
0.133537728
 10
3.0383352356
 20
0.1141496811
 10
3.0378754151
 20
0.0933628252
 10
3.0374507956
 20
0.0713837494
 10
3.0370655971
 20
0.0484308916
 10
3.0367236478
 20
0.0247323676
 10
3.0364283462
 20
0.0005237041
 10
3.0361826272
 20
-0.0239545025
 10
3.0359889328
 20
-0.0484589766
 10
3.035849188
 20
-0.0727461819
 10
3.0357647817
 20
-0.0965747411
 10
3.0357365527
 20
-0.1197078354
  0
LWPOLYLINE
  5
12B
330
1F
100
AcDbEntity
  8
0
  6
Continuous
 62
     7
370
    25
100
AcDbPolyline
 90
       14
 70
   128
 43
0.0
 10
2.964327029
 20
-0.1190833512
 10
2.9643552579
 20
-0.1412910734
 10
2.9644396642
 20
-0.1623527133
 10
2.964579409
 20
-0.1820589507
 10
2.9647731034
 20
-0.2002139363
 10
2.9650188225
 20
-0.2166372377
 10
2.965314124
 20
-0.2311656326
 10
2.9656560733
 20
-0.2436547315
 10
2.9660412719
 20
-0.2539804119
 10
2.9664658914
 20
-0.2620400527
 10
2.9669257118
 20
-0.2677535535
 10
2.9674161633
 20
-0.271064131
 10
2.9679323715
 20
-0.2719388832
 10
2.9680547359
 20
-0.2717932174
  0
LWPOLYLINE
  5
12C
330
1F
100
AcDbEntity
  8
0
  6
Continuous
 62
     7
370
    25
100
AcDbPolyline
 90
       22
 70
   128
 43
0.0
 10
2.9723541549
 20
0.2198436862
 10
2.972344206
 20
0.2198610067
 10
2.9718170293
 20
0.2195130669
 10
2.9712718716
 20
0.2167253758
 10
2.9707141507
 20
0.2115256387
 10
2.9701494097
 20
0.2039655331
 10
2.9695832611
 20
0.1941201945
 10
2.9690213317
 20
0.1820874704
 10
2.968469206
 20
0.1679869475
 10
2.9679323715
 20
0.151958763
 10
2.9674161633
 20
0.1341622122
 10
2.9669257118
 20
0.1147741653
 10
2.9664658914
 20
0.0939873094
 10
2.9660412719
 20
0.0720082335
 10
2.9656560733
 20
0.0490553757
 10
2.965314124
 20
0.0253568518
 10
2.9650188225
 20
0.0011481882
 10
2.9647731034
 20
-0.0233300183
 10
2.964579409
 20
-0.0478344925
 10
2.9644396642
 20
-0.0721216977
 10
2.9643552579
 20
-0.095950257
 10
2.964327029
 20
-0.1190833512
  0
LWPOLYLINE
  5
133
330
1F
100
AcDbEntity
  8
0
  6
Continuous
 62
     7
370
    25
100
AcDbPolyline
 90
       14
 70
   128
 43
0.0
 10
2.8929175052
 20
-0.1184588671
 10
2.8929457342
 20
-0.1406665893
 10
2.8930301405
 20
-0.1617282291
 10
2.8931698853
 20
-0.1814344666
 10
2.8933635797
 20
-0.1995894522
 10
2.8936092987
 20
-0.2160127535
 10
2.8939046003
 20
-0.2305411485
 10
2.8942465496
 20
-0.2430302473
 10
2.8946317481
 20
-0.2533559277
 10
2.8950563676
 20
-0.2614155685
 10
2.8955161881
 20
-0.2671290694
 10
2.8960066396
 20
-0.2704396469
 10
2.8965228477
 20
-0.2713143991
 10
2.8966452122
 20
-0.2711687332
  0
LWPOLYLINE
  5
134
330
1F
100
AcDbEntity
  8
0
  6
Continuous
 62
     7
370
    25
100
AcDbPolyline
 90
       22
 70
   128
 43
0.0
 10
2.9009446311
 20
0.2204681703
 10
2.9009346823
 20
0.2204854909
 10
2.9004075056
 20
0.220137551
 10
2.8998623478
 20
0.2173498599
 10
2.899304627
 20
0.2121501229
 10
2.8987398859
 20
0.2045900172
 10
2.8981737374
 20
0.1947446787
 10
2.8976118079
 20
0.1827119546
 10
2.8970596823
 20
0.1686114316
 10
2.8965228477
 20
0.1525832471
 10
2.8960066396
 20
0.1347866964
 10
2.8955161881
 20
0.1153986494
 10
2.8950563676
 20
0.0946117935
 10
2.8946317481
 20
0.0726327177
 10
2.8942465496
 20
0.0496798599
 10
2.8939046003
 20
0.0259813359
 10
2.8936092987
 20
0.0017726724
 10
2.8933635797
 20
-0.0227055341
 10
2.8931698853
 20
-0.0472100083
 10
2.8930301405
 20
-0.0714972136
 10
2.8929457342
 20
-0.0953257728
 10
2.8929175052
 20
-0.1184588671
  0
LWPOLYLINE
  5
13B
330
1F
100
AcDbEntity
  8
0
  6
Continuous
 62
     7
370
    25
100
AcDbPolyline
 90
       14
 70
   128
 43
0.0
 10
2.8215079815
 20
-0.1178343829
 10
2.8215362104
 20
-0.1400421051
 10
2.8216206167
 20
-0.161103745
 10
2.8217603615
 20
-0.1808099824
 10
2.8219540559
 20
-0.198964968
 10
2.8221997749
 20
-0.2153882693
 10
2.8224950765
 20
-0.2299166643
 10
2.8228370258
 20
-0.2424057631
 10
2.8232222243
 20
-0.2527314436
 10
2.8236468439
 20
-0.2607910844
 10
2.8241066643
 20
-0.2665045852
 10
2.8245971158
 20
-0.2698151627
 10
2.825113324
 20
-0.2706899149
 10
2.8252356884
 20
-0.270544249
  0
LWPOLYLINE
  5
13C
330
1F
100
AcDbEntity
  8
0
  6
Continuous
 62
     7
370
    25
100
AcDbPolyline
 90
       22
 70
   128
 43
0.0
 10
2.8295351074
 20
0.2210926545
 10
2.8295251585
 20
0.221109975
 10
2.8289979818
 20
0.2207620352
 10
2.828452824
 20
0.2179743441
 10
2.8278951032
 20
0.2127746071
 10
2.8273303622
 20
0.2052145014
 10
2.8267642136
 20
0.1953691628
 10
2.8262022842
 20
0.1833364388
 10
2.8256501585
 20
0.1692359158
 10
2.825113324
 20
0.1532077313
 10
2.8245971158
 20
0.1354111805
 10
2.8241066643
 20
0.1160231336
 10
2.8236468439
 20
0.0952362777
 10
2.8232222243
 20
0.0732572019
 10
2.8228370258
 20
0.0503043441
 10
2.8224950765
 20
0.0266058201
 10
2.8221997749
 20
0.0023971566
 10
2.8219540559
 20
-0.02208105
 10
2.8217603615
 20
-0.0465855241
 10
2.8216206167
 20
-0.0708727294
 10
2.8215362104
 20
-0.0947012886
 10
2.8215079815
 20
-0.1178343829
  0
LWPOLYLINE
  5
143
330
1F
100
AcDbEntity
  8
0
  6
Continuous
 62
     7
370
    25
100
AcDbPolyline
 90
       14
 70
   128
 43
0.0
 10
2.7500984577
 20
-0.1172098987
 10
2.7501266867
 20
-0.1394176209
 10
2.750211093
 20
-0.1604792608
 10
2.7503508377
 20
-0.1801854982
 10
2.7505445322
 20
-0.1983404838
 10
2.7507902512
 20
-0.2147637852
 10
2.7510855528
 20
-0.2292921801
 10
2.751427502
 20
-0.241781279
 10
2.7518127006
 20
-0.2521069594
 10
2.7522373201
 20
-0.2601666002
 10
2.7526971406
 20
-0.265880101
 10
2.753187592
 20
-0.2691906785
 10
2.7537038002
 20
-0.2700654307
 10
2.7538261646
 20
-0.2699197649
  0
LWPOLYLINE
  5
144
330
1F
100
AcDbEntity
  8
0
  6
Continuous
 62
     7
370
    25
100
AcDbPolyline
 90
       22
 70
   128
 43
0.0
 10
2.7581255836
 20
0.2217171387
 10
2.7581156347
 20
0.2217344592
 10
2.7575884581
 20
0.2213865194
 10
2.7570433003
 20
0.2185988283
 10
2.7564855794
 20
0.2133990912
 10
2.7559208384
 20
0.2058389856
 10
2.7553546899
 20
0.195993647
 10
2.7547927604
 20
0.1839609229
 10
2.7542406348
 20
0.1698604
 10
2.7537038002
 20
0.1538322154
 10
2.753187592
 20
0.1360356647
 10
2.7526971406
 20
0.1166476178
 10
2.7522373201
 20
0.0958607619
 10
2.7518127006
 20
0.073881686
 10
2.751427502
 20
0.0509288282
 10
2.7510855528
 20
0.0272303043
 10
2.7507902512
 20
0.0030216407
 10
2.7505445322
 20
-0.0214565658
 10
2.7503508377
 20
-0.04596104
 10
2.750211093
 20
-0.0702482452
 10
2.7501266867
 20
-0.0940768045
 10
2.7500984577
 20
-0.1172098987
  0
LWPOLYLINE
  5
14B
330
1F
100
AcDbEntity
  8
0
  6
Continuous
 62
     7
370
    25
100
AcDbPolyline
 90
       14
 70
   128
 43
0.0
 10
2.678688934
 20
-0.1165854146
 10
2.6787171629
 20
-0.1387931368
 10
2.6788015692
 20
-0.1598547766
 10
2.678941314
 20
-0.1795610141
 10
2.6791350084
 20
-0.1977159997
 10
2.6793807274
 20
-0.214139301
 10
2.679676029
 20
-0.228667696
 10
2.6800179783
 20
-0.2411567948
 10
2.6804031768
 20
-0.2514824752
 10
2.6808277964
 20
-0.259542116
 10
2.6812876168
 20
-0.2652556169
 10
2.6817780683
 20
-0.2685661944
 10
2.6822942765
 20
-0.2694409466
 10
2.6824166409
 20
-0.2692952807
  0
LWPOLYLINE
  5
14C
330
1F
100
AcDbEntity
  8
0
  6
Continuous
 62
     7
370
    25
100
AcDbPolyline
 90
       22
 70
   128
 43
0.0
 10
2.6867160598
 20
0.2223416228
 10
2.686706111
 20
0.2223589433
 10
2.6861789343
 20
0.2220110035
 10
2.6856337765
 20
0.2192233124
 10
2.6850760557
 20
0.2140235754
 10
2.6845113147
 20
0.2064634697
 10
2.6839451661
 20
0.1966181312
 10
2.6833832367
 20
0.1845854071
 10
2.682831111
 20
0.1704848841
 10
2.6822942765
 20
0.1544566996
 10
2.6817780683
 20
0.1366601488
 10
2.6812876168
 20
0.1172721019
 10
2.6808277964
 20
0.096485246
 10
2.6804031768
 20
0.0745061702
 10
2.6800179783
 20
0.0515533124
 10
2.679676029
 20
0.0278547884
 10
2.6793807274
 20
0.0036461249
 10
2.6791350084
 20
-0.0208320817
 10
2.678941314
 20
-0.0453365558
 10
2.6788015692
 20
-0.0696237611
 10
2.6787171629
 20
-0.0934523203
 10
2.678688934
 20
-0.1165854146
  0
LWPOLYLINE
  5
153
330
1F
100
AcDbEntity
  8
0
  6
Continuous
 62
     7
370
    25
100
AcDbPolyline
 90
       14
 70
   128
 43
0.0
 10
2.3907620633
 20
-0.1155254539
 10
2.390790734
 20
-0.138080736
 10
2.3908764613
 20
-0.1594719991
 10
2.3910183932
 20
-0.1794866472
 10
2.391215119
 20
-0.1979257657
 10
2.3914646836
 20
-0.2146060984
 10
2.3917646068
 20
-0.2293618686
 10
2.3921119077
 20
-0.2420464269
 10
2.3925031348
 20
-0.2525337084
 10
2.3929343998
 20
-0.2607194859
 10
2.3934014166
 20
-0.2665224053
 10
2.3938995438
 20
-0.2698847947
 10
2.3944238309
 20
-0.2707732372
 10
2.3945481103
 20
-0.2706252916
  0
LWPOLYLINE
  5
154
330
1F
100
AcDbEntity
  8
0
  6
Continuous
 62
     7
370
    25
100
AcDbPolyline
 90
       22
 70
   128
 43
0.0
 10
2.398914817
 20
0.2287059294
 10
2.3989047124
 20
0.228723521
 10
2.3983692852
 20
0.2283701357
 10
2.3978155955
 20
0.2255388162
 10
2.3972491461
 20
0.2202577011
 10
2.3966755666
 20
0.2125792767
 10
2.3961005576
 20
0.2025798546
 10
2.3955298337
 20
0.1903588135
 10
2.3949690671
 20
0.1760376116
 10
2.3944238309
 20
0.1597585795
 10
2.3938995438
 20
0.1416835055
 10
2.3934014166
 20
0.1219920278
 10
2.3929343998
 20
0.1008798491
 10
2.3925031348
 20
0.0785567918
 10
2.3921119077
 20
0.0552447125
 10
2.3917646068
 20
0.031175297
 10
2.3914646836
 20
0.006587758
 10
2.391215119
 20
-0.0182735424
 10
2.3910183932
 20
-0.0431615216
 10
2.3908764613
 20
-0.0678288315
 10
2.390790734
 20
-0.0920303173
 10
2.3907620633
 20
-0.1155254539
  0
LWPOLYLINE
  5
157
330
1F
100
AcDbEntity
  8
0
  6
Continuous
 62
     7
370
    25
100
AcDbPolyline
 90
       14
 70
   128
 43
0.0
 10
2.6072794102
 20
-0.1159609304
 10
2.6073076392
 20
-0.1381686526
 10
2.6073920454
 20
-0.1592302925
 10
2.6075317902
 20
-0.1789365299
 10
2.6077254846
 20
-0.1970915155
 10
2.6079712037
 20
-0.2135148169
 10
2.6082665052
 20
-0.2280432118
 10
2.6086084545
 20
-0.2405323106
 10
2.6089936531
 20
-0.2508579911
 10
2.6094182726
 20
-0.2589176319
 10
2.609878093
 20
-0.2646311327
 10
2.6103685445
 20
-0.2679417102
 10
2.6108847527
 20
-0.2688164624
 10
2.6110071171
 20
-0.2686707965
  0
LWPOLYLINE
  5
158
330
1F
100
AcDbEntity
  8
0
  6
Continuous
 62
     7
370
    25
100
AcDbPolyline
 90
       22
 70
   128
 43
0.0
 10
2.6153065361
 20
0.222966107
 10
2.6152965872
 20
0.2229834275
 10
2.6147694105
 20
0.2226354877
 10
2.6142242528
 20
0.2198477966
 10
2.6136665319
 20
0.2146480596
 10
2.6131017909
 20
0.2070879539
 10
2.6125356423
 20
0.1972426153
 10
2.6119737129
 20
0.1852098912
 10
2.6114215873
 20
0.1711093683
 10
2.6108847527
 20
0.1550811838
 10
2.6103685445
 20
0.137284633
 10
2.609878093
 20
0.1178965861
 10
2.6094182726
 20
0.0971097302
 10
2.6089936531
 20
0.0751306544
 10
2.6086084545
 20
0.0521777966
 10
2.6082665052
 20
0.0284792726
 10
2.6079712037
 20
0.0042706091
 10
2.6077254846
 20
-0.0202075975
 10
2.6075317902
 20
-0.0447120716
 10
2.6073920454
 20
-0.0689992769
 10
2.6073076392
 20
-0.0928278361
 10
2.6072794102
 20
-0.1159609304
  0
LWPOLYLINE
  5
160
330
1F
100
AcDbEntity
  8
0
  6
Continuous
 62
     7
370
    25
100
AcDbPolyline
 90
       14
 70
   128
 43
0.0
 10
2.5358698864
 20
-0.1153364462
 10
2.5358981154
 20
-0.1375441685
 10
2.5359825217
 20
-0.1586058083
 10
2.5361222665
 20
-0.1783120457
 10
2.5363159609
 20
-0.1964670313
 10
2.5365616799
 20
-0.2128903327
 10
2.5368569815
 20
-0.2274187276
 10
2.5371989308
 20
-0.2399078265
 10
2.5375841293
 20
-0.2502335069
 10
2.5380087488
 20
-0.2582931477
 10
2.5384685693
 20
-0.2640066485
 10
2.5389590208
 20
-0.2673172261
 10
2.5394752289
 20
-0.2681919783
 10
2.5395975934
 20
-0.2680463124
  0
LWPOLYLINE
  5
161
330
1F
100
AcDbEntity
  8
0
  6
Continuous
 62
     7
370
    25
100
AcDbPolyline
 90
       22
 70
   128
 43
0.0
 10
2.5438970123
 20
0.2235905912
 10
2.5438870635
 20
0.2236079117
 10
2.5433598868
 20
0.2232599719
 10
2.542814729
 20
0.2204722808
 10
2.5422570082
 20
0.2152725437
 10
2.5416922671
 20
0.2077124381
 10
2.5411261186
 20
0.1978670995
 10
2.5405641891
 20
0.1858343754
 10
2.5400120635
 20
0.1717338525
 10
2.5394752289
 20
0.1557056679
 10
2.5389590208
 20
0.1379091172
 10
2.5384685693
 20
0.1185210703
 10
2.5380087488
 20
0.0977342143
 10
2.5375841293
 20
0.0757551385
 10
2.5371989308
 20
0.0528022807
 10
2.5368569815
 20
0.0291037568
 10
2.5365616799
 20
0.0048950932
 10
2.5363159609
 20
-0.0195831133
 10
2.5361222665
 20
-0.0440875875
 10
2.5359825217
 20
-0.0683747927
 10
2.5358981154
 20
-0.092203352
 10
2.5358698864
 20
-0.1153364462
  0
LWPOLYLINE
  5
168
330
1F
100
AcDbEntity
  8
0
  6
Continuous
 62
     7
370
    25
100
AcDbPolyline
 90
       14
 70
   128
 43
0.0
 10
2.4644603627
 20
-0.1147119621
 10
2.4644885916
 20
-0.1369196843
 10
2.4645729979
 20
-0.1579813241
 10
2.4647127427
 20
-0.1776875616
 10
2.4649064371
 20
-0.1958425472
 10
2.4651521562
 20
-0.2122658485
 10
2.4654474577
 20
-0.2267942435
 10
2.465789407
 20
-0.2392833423
 10
2.4661746056
 20
-0.2496090227
 10
2.4665992251
 20
-0.2576686635
 10
2.4670590455
 20
-0.2633821644
 10
2.467549497
 20
-0.2666927419
 10
2.4680657052
 20
-0.2675674941
 10
2.4681880696
 20
-0.2674218282
  0
LWPOLYLINE
  5
169
330
1F
100
AcDbEntity
  8
0
  6
Continuous
 62
     7
370
    25
100
AcDbPolyline
 90
       22
 70
   128
 43
0.0
 10
2.4724874886
 20
0.2242150753
 10
2.4724775397
 20
0.2242323958
 10
2.471950363
 20
0.223884456
 10
2.4714052053
 20
0.2210967649
 10
2.4708474844
 20
0.2158970279
 10
2.4702827434
 20
0.2083369222
 10
2.4697165948
 20
0.1984915836
 10
2.4691546654
 20
0.1864588596
 10
2.4686025397
 20
0.1723583366
 10
2.4680657052
 20
0.1563301521
 10
2.467549497
 20
0.1385336013
 10
2.4670590455
 20
0.1191455544
 10
2.4665992251
 20
0.0983586985
 10
2.4661746056
 20
0.0763796227
 10
2.465789407
 20
0.0534267649
 10
2.4654474577
 20
0.0297282409
 10
2.4651521562
 20
0.0055195774
 10
2.4649064371
 20
-0.0189586292
 10
2.4647127427
 20
-0.0434631033
 10
2.4645729979
 20
-0.0677503086
 10
2.4644885916
 20
-0.0915788678
 10
2.4644603627
 20
-0.1147119621
  0
LWPOLYLINE
  5
170
330
1F
100
AcDbEntity
  8
0
  6
Continuous
 62
     7
370
    25
100
AcDbPolyline
 90
       58
 70
   128
 43
0.0
 10
3.4943521294
 20
-0.1078732073
 10
3.4943807435
 20
-0.0866169085
 10
3.4944662382
 20
-0.064680637
 10
3.4946075759
 20
-0.0423306694
 10
3.4948030409
 20
-0.019838304
 10
3.4950502605
 20
0.0025234323
 10
3.4953462338
 20
0.0244830984
 10
3.4956873681
 20
0.0457741336
 10
3.4960695225
 20
0.0661380937
 10
3.4964880581
 20
0.0853277877
 10
3.4969378945
 20
0.1031102787
 10
3.4974135712
 20
0.1192697114
 10
3.4979093143
 20
0.1336099322
 10
3.498419106
 20
0.1459568703
 10
3.4989367582
 20
0.1561606504
 10
3.4994559873
 20
0.1640974126
 10
3.4999704906
 20
0.1696708153
 10
3.5004740226
 20
0.1728132049
 10
3.5009604712
 20
0.1734864372
 10
3.5014239315
 20
0.1716823399
 10
3.5018587778
 20
0.1674228123
 10
3.5022597316
 20
0.1607595594
 10
3.5026219259
 20
0.1517734641
 10
3.5029409642
 20
0.1405736053
 10
3.5032129737
 20
0.1272959341
 10
3.5034346526
 20
0.1121016235
 10
3.5036033101
 20
0.0951751119
 10
3.5037168988
 20
0.0767218642
 10
3.5037740399
 20
0.0569658778
 10
3.5037740399
 20
0.0361469635
 10
3.5037168988
 20
0.0145178349
 10
3.5036033101
 20
-0.0076589597
 10
3.5034346526
 20
-0.0301142241
 10
3.5032129737
 20
-0.0525753819
 10
3.5029409642
 20
-0.0747697849
 10
3.5026219259
 20
-0.0964280233
 10
3.5022597316
 20
-0.1172871952
 10
3.5018587778
 20
-0.1370940987
 10
3.5014239315
 20
-0.1556083047
 10
3.5009604712
 20
-0.172605076
 10
3.5004740226
 20
-0.1878780946
 10
3.4999704906
 20
-0.2012419668
 10
3.4994559873
 20
-0.2125344734
 10
3.4989367582
 20
-0.2216185385
 10
3.498419106
 20
-0.2283838941
 10
3.4979093143
 20
-0.2327484177
 10
3.4974135712
 20
-0.23465913
 10
3.4969378945
 20
-0.2340928376
 10
3.4964880581
 20
-0.2310564144
 10
3.4960695225
 20
-0.2255867185
 10
3.4956873681
 20
-0.2177501447
 10
3.4953462338
 20
-0.2076418183
 10
3.4950502605
 20
-0.1953844407
 10
3.4948030409
 20
-0.1811267998
 10
3.4946075759
 20
-0.1650419642
 10
3.4944662382
 20
-0.1473251818
 10
3.4943807435
 20
-0.1281915106
 10
3.4943521294
 20
-0.1078732073
  0
LINE
  5
172
330
1F
100
AcDbEntity
  8
0
  6
Continuous
 62
     7
370
    25
100
AcDbLine
 10
3.4679214022
 20
-0.2761646065
 30
0.0
 11
3.4920786718
 21
-0.2347050979
 31
0.0
  0
LINE
  5
173
330
1F
100
AcDbEntity
  8
0
  6
Continuous
 62
     7
370
    25
100
AcDbLine
 10
3.4956493156
 20
0.1735966456
 30
0.0
 11
3.4722208212
 21
0.215472297
 31
0.0
  0
LINE
  5
174
330
1F
100
AcDbEntity
  8
0
  6
Continuous
 62
     7
370
    25
100
AcDbLine
 10
3.4621247293
 20
-0.2762860692
 30
0.0
 11
3.467723236
 21
-0.2763350288
 31
0.0
  0
LINE
  5
175
330
1F
100
AcDbEntity
  8
0
  6
Continuous
 62
     7
370
    25
100
AcDbLine
 10
3.4720256657
 20
0.215646159
 30
0.0
 11
3.4664271591
 21
0.2156951185
 31
0.0
  0
LINE
  5
176
330
1F
100
AcDbEntity
  8
0
  6
Continuous
 62
     7
370
    25
100
AcDbLine
 10
3.4662289928
 20
0.2155246962
 30
0.0
 11
3.4419888967
 21
0.1739230379
 31
0.0
  0
LINE
  5
177
330
1F
100
AcDbEntity
  8
0
  6
Continuous
 62
     7
370
    25
100
AcDbLine
 10
3.4384207516
 20
-0.2340929795
 30
0.0
 11
3.4619295738
 21
-0.2761122073
 31
0.0
  0
LINE
  5
178
330
1F
100
AcDbEntity
  8
0
  6
Continuous
 62
     7
370
    25
100
AcDbLine
 10
3.3965118785
 20
-0.2755401223
 30
0.0
 11
3.420669148
 21
-0.2340806137
 31
0.0
  0
LINE
  5
179
330
1F
100
AcDbEntity
  8
0
  6
Continuous
 62
     7
370
    25
100
AcDbLine
 10
3.4242397918
 20
0.1742211298
 30
0.0
 11
3.4008112974
 21
0.2160967812
 31
0.0
  0
LINE
  5
17A
330
1F
100
AcDbEntity
  8
0
  6
Continuous
 62
     7
370
    25
100
AcDbLine
 10
3.3907152055
 20
-0.2756615851
 30
0.0
 11
3.3963137122
 21
-0.2757105446
 31
0.0
  0
LINE
  5
17B
330
1F
100
AcDbEntity
  8
0
  6
Continuous
 62
     7
370
    25
100
AcDbLine
 10
3.400616142
 20
0.2162706431
 30
0.0
 11
3.3950176353
 21
0.2163196027
 31
0.0
  0
LINE
  5
17C
330
1F
100
AcDbEntity
  8
0
  6
Continuous
 62
     7
370
    25
100
AcDbLine
 10
3.394819469
 20
0.2161491804
 30
0.0
 11
3.3705793729
 21
0.1745475221
 31
0.0
  0
LINE
  5
17D
330
1F
100
AcDbEntity
  8
0
  6
Continuous
 62
     7
370
    25
100
AcDbLine
 10
3.3670112279
 20
-0.2334684953
 30
0.0
 11
3.3905200501
 21
-0.2754877231
 31
0.0
  0
LINE
  5
17E
330
1F
100
AcDbEntity
  8
0
  6
Continuous
 62
     7
370
    25
100
AcDbLine
 10
3.3251023547
 20
-0.2749156382
 30
0.0
 11
3.3492596243
 21
-0.2334561295
 31
0.0
  0
LINE
  5
17F
330
1F
100
AcDbEntity
  8
0
  6
Continuous
 62
     7
370
    25
100
AcDbLine
 10
3.3528302681
 20
0.1748456139
 30
0.0
 11
3.3294017737
 21
0.2167212653
 31
0.0
  0
LINE
  5
180
330
1F
100
AcDbEntity
  8
0
  6
Continuous
 62
     7
370
    25
100
AcDbLine
 10
3.3193056818
 20
-0.2750371009
 30
0.0
 11
3.3249041884
 21
-0.2750860605
 31
0.0
  0
LINE
  5
181
330
1F
100
AcDbEntity
  8
0
  6
Continuous
 62
     7
370
    25
100
AcDbLine
 10
3.3292066182
 20
0.2168951273
 30
0.0
 11
3.3236081115
 21
0.2169440868
 31
0.0
  0
LINE
  5
182
330
1F
100
AcDbEntity
  8
0
  6
Continuous
 62
     7
370
    25
100
AcDbLine
 10
3.3234099453
 20
0.2167736645
 30
0.0
 11
3.2991698492
 21
0.1751720063
 31
0.0
  0
LINE
  5
183
330
1F
100
AcDbEntity
  8
0
  6
Continuous
 62
     7
370
    25
100
AcDbLine
 10
3.2956017041
 20
-0.2328440111
 30
0.0
 11
3.3191105263
 21
-0.274863239
 31
0.0
  0
LINE
  5
184
330
1F
100
AcDbEntity
  8
0
  6
Continuous
 62
     7
370
    25
100
AcDbLine
 10
3.2536928309
 20
-0.274291154
 30
0.0
 11
3.2778501005
 21
-0.2328316454
 31
0.0
  0
LINE
  5
185
330
1F
100
AcDbEntity
  8
0
  6
Continuous
 62
     7
370
    25
100
AcDbLine
 10
3.2814207443
 20
0.1754700981
 30
0.0
 11
3.2579922499
 21
0.2173457495
 31
0.0
  0
LINE
  5
186
330
1F
100
AcDbEntity
  8
0
  6
Continuous
 62
     7
370
    25
100
AcDbLine
 10
3.247896158
 20
-0.2744126167
 30
0.0
 11
3.2534946647
 21
-0.2744615763
 31
0.0
  0
LINE
  5
187
330
1F
100
AcDbEntity
  8
0
  6
Continuous
 62
     7
370
    25
100
AcDbLine
 10
3.2577970945
 20
0.2175196114
 30
0.0
 11
3.2521985878
 21
0.217568571
 31
0.0
  0
LINE
  5
188
330
1F
100
AcDbEntity
  8
0
  6
Continuous
 62
     7
370
    25
100
AcDbLine
 10
3.2520004215
 20
0.2173981487
 30
0.0
 11
3.2277603254
 21
0.1757964904
 31
0.0
  0
LINE
  5
189
330
1F
100
AcDbEntity
  8
0
  6
Continuous
 62
     7
370
    25
100
AcDbLine
 10
3.2241921803
 20
-0.232219527
 30
0.0
 11
3.2477010026
 21
-0.2742387548
 31
0.0
  0
LINE
  5
18A
330
1F
100
AcDbEntity
  8
0
  6
Continuous
 62
     7
370
    25
100
AcDbLine
 10
3.1822833072
 20
-0.2736666698
 30
0.0
 11
3.2064405768
 21
-0.2322071612
 31
0.0
  0
LINE
  5
18B
330
1F
100
AcDbEntity
  8
0
  6
Continuous
 62
     7
370
    25
100
AcDbLine
 10
3.2100112206
 20
0.1760945823
 30
0.0
 11
3.1865827262
 21
0.2179702337
 31
0.0
  0
LINE
  5
18C
330
1F
100
AcDbEntity
  8
0
  6
Continuous
 62
     7
370
    25
100
AcDbLine
 10
3.1764866343
 20
-0.2737881326
 30
0.0
 11
3.1820851409
 21
-0.2738370921
 31
0.0
  0
LINE
  5
18D
330
1F
100
AcDbEntity
  8
0
  6
Continuous
 62
     7
370
    25
100
AcDbLine
 10
3.1863875707
 20
0.2181440956
 30
0.0
 11
3.180789064
 21
0.2181930552
 31
0.0
  0
LINE
  5
18E
330
1F
100
AcDbEntity
  8
0
  6
Continuous
 62
     7
370
    25
100
AcDbLine
 10
3.1805908978
 20
0.2180226329
 30
0.0
 11
3.1563508017
 21
0.1764209746
 31
0.0
  0
LINE
  5
18F
330
1F
100
AcDbEntity
  8
0
  6
Continuous
 62
     7
370
    25
100
AcDbLine
 10
3.1527826566
 20
-0.2315950428
 30
0.0
 11
3.1762914788
 21
-0.2736142706
 31
0.0
  0
LINE
  5
190
330
1F
100
AcDbEntity
  8
0
  6
Continuous
 62
     7
370
    25
100
AcDbLine
 10
3.1108737834
 20
-0.2730421857
 30
0.0
 11
3.135031053
 21
-0.231582677
 31
0.0
  0
LINE
  5
191
330
1F
100
AcDbEntity
  8
0
  6
Continuous
 62
     7
370
    25
100
AcDbLine
 10
3.1386016968
 20
0.1767190664
 30
0.0
 11
3.1151732024
 21
0.2185947178
 31
0.0
  0
LINE
  5
192
330
1F
100
AcDbEntity
  8
0
  6
Continuous
 62
     7
370
    25
100
AcDbLine
 10
3.1050771105
 20
-0.2731636484
 30
0.0
 11
3.1106756172
 21
-0.273212608
 31
0.0
  0
LINE
  5
193
330
1F
100
AcDbEntity
  8
0
  6
Continuous
 62
     7
370
    25
100
AcDbLine
 10
3.1149780469
 20
0.2187685798
 30
0.0
 11
3.1093795403
 21
0.2188175393
 31
0.0
  0
LINE
  5
194
330
1F
100
AcDbEntity
  8
0
  6
Continuous
 62
     7
370
    25
100
AcDbLine
 10
3.109181374
 20
0.218647117
 30
0.0
 11
3.0849412779
 21
0.1770454588
 31
0.0
  0
LINE
  5
195
330
1F
100
AcDbEntity
  8
0
  6
Continuous
 62
     7
370
    25
100
AcDbLine
 10
3.0813731328
 20
-0.2309705587
 30
0.0
 11
3.104881955
 21
-0.2729897865
 31
0.0
  0
LINE
  5
196
330
1F
100
AcDbEntity
  8
0
  6
Continuous
 62
     7
370
    25
100
AcDbLine
 10
3.0394642597
 20
-0.2724177015
 30
0.0
 11
3.0636215292
 21
-0.2309581929
 31
0.0
  0
LINE
  5
197
330
1F
100
AcDbEntity
  8
0
  6
Continuous
 62
     7
370
    25
100
AcDbLine
 10
3.067192173
 20
0.1773435506
 30
0.0
 11
3.0437636786
 21
0.219219202
 31
0.0
  0
LINE
  5
198
330
1F
100
AcDbEntity
  8
0
  6
Continuous
 62
     7
370
    25
100
AcDbLine
 10
3.0336675867
 20
-0.2725391643
 30
0.0
 11
3.0392660934
 21
-0.2725881238
 31
0.0
  0
LINE
  5
199
330
1F
100
AcDbEntity
  8
0
  6
Continuous
 62
     7
370
    25
100
AcDbLine
 10
3.0435685232
 20
0.2193930639
 30
0.0
 11
3.0379700165
 21
0.2194420235
 31
0.0
  0
LINE
  5
19A
330
1F
100
AcDbEntity
  8
0
  6
Continuous
 62
     7
370
    25
100
AcDbLine
 10
3.0377718503
 20
0.2192716012
 30
0.0
 11
3.0135317542
 21
0.1776699429
 31
0.0
  0
LINE
  5
19B
330
1F
100
AcDbEntity
  8
0
  6
Continuous
 62
     7
370
    25
100
AcDbLine
 10
3.0099636091
 20
-0.2303460745
 30
0.0
 11
3.0334724313
 21
-0.2723653023
 31
0.0
  0
LINE
  5
19C
330
1F
100
AcDbEntity
  8
0
  6
Continuous
 62
     7
370
    25
100
AcDbLine
 10
2.9680547359
 20
-0.2717932174
 30
0.0
 11
2.9922120055
 21
-0.2303337087
 31
0.0
  0
LINE
  5
19D
330
1F
100
AcDbEntity
  8
0
  6
Continuous
 62
     7
370
    25
100
AcDbLine
 10
2.9957826493
 20
0.1779680348
 30
0.0
 11
2.9723541549
 21
0.2198436862
 31
0.0
  0
LINE
  5
19E
330
1F
100
AcDbEntity
  8
0
  6
Continuous
 62
     7
370
    25
100
AcDbLine
 10
2.962258063
 20
-0.2719146801
 30
0.0
 11
2.9678565696
 21
-0.2719636396
 31
0.0
  0
LINE
  5
19F
330
1F
100
AcDbEntity
  8
0
  6
Continuous
 62
     7
370
    25
100
AcDbLine
 10
2.9721589994
 20
0.2200175481
 30
0.0
 11
2.9665604928
 21
0.2200665077
 31
0.0
  0
LINE
  5
1A0
330
1F
100
AcDbEntity
  8
0
  6
Continuous
 62
     7
370
    25
100
AcDbLine
 10
2.9663623265
 20
0.2198960854
 30
0.0
 11
2.9421222304
 21
0.1782944271
 31
0.0
  0
LINE
  5
1A1
330
1F
100
AcDbEntity
  8
0
  6
Continuous
 62
     7
370
    25
100
AcDbLine
 10
2.9385540853
 20
-0.2297215903
 30
0.0
 11
2.9620629075
 21
-0.2717408182
 31
0.0
  0
LINE
  5
1A2
330
1F
100
AcDbEntity
  8
0
  6
Continuous
 62
     7
370
    25
100
AcDbLine
 10
2.8966452122
 20
-0.2711687332
 30
0.0
 11
2.9208024817
 21
-0.2297092245
 31
0.0
  0
LINE
  5
1A3
330
1F
100
AcDbEntity
  8
0
  6
Continuous
 62
     7
370
    25
100
AcDbLine
 10
2.9243731255
 20
0.1785925189
 30
0.0
 11
2.9009446311
 21
0.2204681703
 31
0.0
  0
LINE
  5
1A4
330
1F
100
AcDbEntity
  8
0
  6
Continuous
 62
     7
370
    25
100
AcDbLine
 10
2.8908485392
 20
-0.2712901959
 30
0.0
 11
2.8964470459
 21
-0.2713391555
 31
0.0
  0
LINE
  5
1A5
330
1F
100
AcDbEntity
  8
0
  6
Continuous
 62
     7
370
    25
100
AcDbLine
 10
2.9007494757
 20
0.2206420323
 30
0.0
 11
2.895150969
 21
0.2206909918
 31
0.0
  0
LINE
  5
1A6
330
1F
100
AcDbEntity
  8
0
  6
Continuous
 62
     7
370
    25
100
AcDbLine
 10
2.8949528027
 20
0.2205205695
 30
0.0
 11
2.8707127066
 21
0.1789189113
 31
0.0
  0
LINE
  5
1A7
330
1F
100
AcDbEntity
  8
0
  6
Continuous
 62
     7
370
    25
100
AcDbLine
 10
2.8671445615
 20
-0.2290971062
 30
0.0
 11
2.8906533838
 21
-0.271116334
 31
0.0
  0
LINE
  5
1A8
330
1F
100
AcDbEntity
  8
0
  6
Continuous
 62
     7
370
    25
100
AcDbLine
 10
2.8252356884
 20
-0.270544249
 30
0.0
 11
2.849392958
 21
-0.2290847404
 31
0.0
  0
LINE
  5
1A9
330
1F
100
AcDbEntity
  8
0
  6
Continuous
 62
     7
370
    25
100
AcDbLine
 10
2.8529636018
 20
0.1792170031
 30
0.0
 11
2.8295351074
 21
0.2210926545
 31
0.0
  0
LINE
  5
1AA
330
1F
100
AcDbEntity
  8
0
  6
Continuous
 62
     7
370
    25
100
AcDbLine
 10
2.8194390155
 20
-0.2706657118
 30
0.0
 11
2.8250375221
 21
-0.2707146713
 31
0.0
  0
LINE
  5
1AB
330
1F
100
AcDbEntity
  8
0
  6
Continuous
 62
     7
370
    25
100
AcDbLine
 10
2.8293399519
 20
0.2212665164
 30
0.0
 11
2.8237414452
 21
0.221315476
 31
0.0
  0
LINE
  5
1AC
330
1F
100
AcDbEntity
  8
0
  6
Continuous
 62
     7
370
    25
100
AcDbLine
 10
2.823543279
 20
0.2211450537
 30
0.0
 11
2.7993031829
 21
0.1795433954
 31
0.0
  0
LINE
  5
1AD
330
1F
100
AcDbEntity
  8
0
  6
Continuous
 62
     7
370
    25
100
AcDbLine
 10
2.7957350378
 20
-0.228472622
 30
0.0
 11
2.81924386
 21
-0.2704918498
 31
0.0
  0
LINE
  5
1AE
330
1F
100
AcDbEntity
  8
0
  6
Continuous
 62
     7
370
    25
100
AcDbLine
 10
2.7538261646
 20
-0.2699197649
 30
0.0
 11
2.7779834342
 21
-0.2284602562
 31
0.0
  0
LINE
  5
1AF
330
1F
100
AcDbEntity
  8
0
  6
Continuous
 62
     7
370
    25
100
AcDbLine
 10
2.781554078
 20
0.1798414873
 30
0.0
 11
2.7581255836
 21
0.2217171387
 31
0.0
  0
LINE
  5
1B0
330
1F
100
AcDbEntity
  8
0
  6
Continuous
 62
     7
370
    25
100
AcDbLine
 10
2.7480294917
 20
-0.2700412276
 30
0.0
 11
2.7536279984
 21
-0.2700901872
 31
0.0
  0
LINE
  5
1B1
330
1F
100
AcDbEntity
  8
0
  6
Continuous
 62
     7
370
    25
100
AcDbLine
 10
2.7579304281
 20
0.2218910006
 30
0.0
 11
2.7523319215
 21
0.2219399602
 31
0.0
  0
LINE
  5
1B2
330
1F
100
AcDbEntity
  8
0
  6
Continuous
 62
     7
370
    25
100
AcDbLine
 10
2.7521337552
 20
0.2217695379
 30
0.0
 11
2.7278936591
 21
0.1801678796
 31
0.0
  0
LINE
  5
1B3
330
1F
100
AcDbEntity
  8
0
  6
Continuous
 62
     7
370
    25
100
AcDbLine
 10
2.724325514
 20
-0.2278481378
 30
0.0
 11
2.7478343363
 21
-0.2698673657
 31
0.0
  0
LINE
  5
1B4
330
1F
100
AcDbEntity
  8
0
  6
Continuous
 62
     7
370
    25
100
AcDbLine
 10
2.6824166409
 20
-0.2692952807
 30
0.0
 11
2.7065739105
 21
-0.2278357721
 31
0.0
  0
LINE
  5
1B5
330
1F
100
AcDbEntity
  8
0
  6
Continuous
 62
     7
370
    25
100
AcDbLine
 10
2.7101445543
 20
0.1804659714
 30
0.0
 11
2.6867160598
 21
0.2223416228
 31
0.0
  0
LINE
  5
1B6
330
1F
100
AcDbEntity
  8
0
  6
Continuous
 62
     7
370
    25
100
AcDbLine
 10
2.676619968
 20
-0.2694167434
 30
0.0
 11
2.6822184746
 21
-0.269465703
 31
0.0
  0
LINE
  5
1B7
330
1F
100
AcDbEntity
  8
0
  6
Continuous
 62
     7
370
    25
100
AcDbLine
 10
2.6865209044
 20
0.2225154848
 30
0.0
 11
2.6809223977
 21
0.2225644443
 31
0.0
  0
LINE
  5
1B8
330
1F
100
AcDbEntity
  8
0
  6
Continuous
 62
     7
370
    25
100
AcDbLine
 10
2.6807242315
 20
0.222394022
 30
0.0
 11
2.6564841354
 21
0.1807923638
 31
0.0
  0
LINE
  5
1B9
330
1F
100
AcDbEntity
  8
0
  6
Continuous
 62
     7
370
    25
100
AcDbLine
 10
2.6529159903
 20
-0.2272236537
 30
0.0
 11
2.6764248125
 21
-0.2692428815
 31
0.0
  0
LINE
  5
1BA
330
1F
100
AcDbEntity
  8
0
  6
Continuous
 62
     7
370
    25
100
AcDbLine
 10
2.3945481103
 20
-0.2706252916
 30
0.0
 11
2.4209358154
 21
-0.2253378354
 31
0.0
  0
LINE
  5
1BB
330
1F
100
AcDbEntity
  8
0
  6
Continuous
 62
     7
370
    25
100
AcDbLine
 10
2.4245064592
 20
0.1829639081
 30
0.0
 11
2.398914817
 21
0.2287059294
 31
0.0
  0
LINE
  5
1BC
330
1F
100
AcDbEntity
  8
0
  6
Continuous
 62
     7
370
    25
100
AcDbLine
 10
2.6110071171
 20
-0.2686707965
 30
0.0
 11
2.6351643867
 21
-0.2272112879
 31
0.0
  0
LINE
  5
1BD
330
1F
100
AcDbEntity
  8
0
  6
Continuous
 62
     7
370
    25
100
AcDbLine
 10
2.6387350305
 20
0.1810904556
 30
0.0
 11
2.6153065361
 21
0.222966107
 31
0.0
  0
LINE
  5
1BE
330
1F
100
AcDbEntity
  8
0
  6
Continuous
 62
     7
370
    25
100
AcDbLine
 10
0.0178097844
 20
-0.2500153022
 30
0.0
 11
2.3943468427
 21
-0.270798381
 31
0.0
  0
LINE
  5
1BF
330
1F
100
AcDbEntity
  8
0
  6
Continuous
 62
     7
370
    25
100
AcDbLine
 10
2.3987166072
 20
0.2288825123
 30
0.0
 11
0.0221795489
 21
0.2496655911
 31
0.0
  0
LINE
  5
1C0
330
1F
100
AcDbEntity
  8
0
  6
Continuous
 62
     7
370
    25
100
AcDbLine
 10
2.6052104442
 20
-0.2687922593
 30
0.0
 11
2.6108089509
 21
-0.2688412188
 31
0.0
  0
LINE
  5
1C1
330
1F
100
AcDbEntity
  8
0
  6
Continuous
 62
     7
370
    25
100
AcDbLine
 10
2.6151113806
 20
0.2231399689
 30
0.0
 11
2.609512874
 21
0.2231889285
 31
0.0
  0
LINE
  5
1C2
330
1F
100
AcDbEntity
  8
0
  6
Continuous
 62
     7
370
    25
100
AcDbLine
 10
2.6093147077
 20
0.2230185062
 30
0.0
 11
2.5850746116
 21
0.1814168479
 31
0.0
  0
LINE
  5
1C3
330
1F
100
AcDbEntity
  8
0
  6
Continuous
 62
     7
370
    25
100
AcDbLine
 10
2.5815064665
 20
-0.2265991695
 30
0.0
 11
2.6050152887
 21
-0.2686183973
 31
0.0
  0
LINE
  5
1C4
330
1F
100
AcDbEntity
  8
0
  6
Continuous
 62
     7
370
    25
100
AcDbLine
 10
2.5395975934
 20
-0.2680463124
 30
0.0
 11
2.5637548629
 21
-0.2265868037
 31
0.0
  0
LINE
  5
1C5
330
1F
100
AcDbEntity
  8
0
  6
Continuous
 62
     7
370
    25
100
AcDbLine
 10
2.5673255067
 20
0.1817149398
 30
0.0
 11
2.5438970123
 21
0.2235905912
 31
0.0
  0
LINE
  5
1C6
330
1F
100
AcDbEntity
  8
0
  6
Continuous
 62
     7
370
    25
100
AcDbLine
 10
2.5338009204
 20
-0.2681677751
 30
0.0
 11
2.5393994271
 21
-0.2682167347
 31
0.0
  0
LINE
  5
1C7
330
1F
100
AcDbEntity
  8
0
  6
Continuous
 62
     7
370
    25
100
AcDbLine
 10
2.5437018569
 20
0.2237644531
 30
0.0
 11
2.5381033502
 21
0.2238134126
 31
0.0
  0
LINE
  5
1C8
330
1F
100
AcDbEntity
  8
0
  6
Continuous
 62
     7
370
    25
100
AcDbLine
 10
2.5379051839
 20
0.2236429904
 30
0.0
 11
2.5136650878
 21
0.1820413321
 31
0.0
  0
LINE
  5
1C9
330
1F
100
AcDbEntity
  8
0
  6
Continuous
 62
     7
370
    25
100
AcDbLine
 10
2.5100969428
 20
-0.2259746853
 30
0.0
 11
2.533605765
 21
-0.2679939132
 31
0.0
  0
LINE
  5
1CA
330
1F
100
AcDbEntity
  8
0
  6
Continuous
 62
     7
370
    25
100
AcDbLine
 10
2.4681880696
 20
-0.2674218282
 30
0.0
 11
2.4923453392
 21
-0.2259623196
 31
0.0
  0
LINE
  5
1CB
330
1F
100
AcDbEntity
  8
0
  6
Continuous
 62
     7
370
    25
100
AcDbLine
 10
2.495915983
 20
0.1823394239
 30
0.0
 11
2.4724874886
 21
0.2242150753
 31
0.0
  0
LINE
  5
1CC
330
1F
100
AcDbEntity
  8
0
  6
Continuous
 62
     7
370
    25
100
AcDbLine
 10
2.4623913967
 20
-0.2675432909
 30
0.0
 11
2.4679899033
 21
-0.2675922505
 31
0.0
  0
LINE
  5
1CD
330
1F
100
AcDbEntity
  8
0
  6
Continuous
 62
     7
370
    25
100
AcDbLine
 10
2.4722923331
 20
0.2243889373
 30
0.0
 11
2.4666938264
 21
0.2244378968
 31
0.0
  0
LINE
  5
1CE
330
1F
100
AcDbEntity
  8
0
  6
Continuous
 62
     7
370
    25
100
AcDbLine
 10
2.4664956602
 20
0.2242674745
 30
0.0
 11
2.4422555641
 21
0.1826658162
 31
0.0
  0
LINE
  5
1CF
330
1F
100
AcDbEntity
  8
0
  6
Continuous
 62
     7
370
    25
100
AcDbLine
 10
2.438687419
 20
-0.2253502012
 30
0.0
 11
2.4621962412
 21
-0.267369429
 31
0.0
  0
LINE
  5
1D0
330
1F
100
AcDbEntity
  8
0
  6
Continuous
 62
     7
370
    25
100
AcDbLine
 10
3.4919970375
 20
-0.234704384
 30
0.0
 11
3.4972813423
 21
-0.2347505958
 31
0.0
  0
LINE
  5
1D1
330
1F
100
AcDbEntity
  8
0
  6
Continuous
 62
     7
370
    25
100
AcDbLine
 10
3.5008519861
 20
0.1735511477
 30
0.0
 11
3.4955676813
 21
0.1735973595
 31
0.0
  0
LINE
  5
1D2
330
1F
100
AcDbEntity
  8
0
  6
Continuous
 62
     7
370
    25
100
AcDbLine
 10
3.4205875137
 20
-0.2340798998
 30
0.0
 11
3.4385010794
 21
-0.2342365559
 31
0.0
  0
LINE
  5
1D3
330
1F
100
AcDbEntity
  8
0
  6
Continuous
 62
     7
370
    25
100
AcDbLine
 10
3.4420717232
 20
0.1740651876
 30
0.0
 11
3.4241581575
 21
0.1742218437
 31
0.0
  0
LINE
  5
1D4
330
1F
100
AcDbEntity
  8
0
  6
Continuous
 62
     7
370
    25
100
AcDbLine
 10
3.34917799
 20
-0.2334554156
 30
0.0
 11
3.3670915557
 21
-0.2336120717
 31
0.0
  0
LINE
  5
1D5
330
1F
100
AcDbEntity
  8
0
  6
Continuous
 62
     7
370
    25
100
AcDbLine
 10
3.3706621995
 20
0.1746896717
 30
0.0
 11
3.3527486338
 21
0.1748463279
 31
0.0
  0
LINE
  5
1D6
330
1F
100
AcDbEntity
  8
0
  6
Continuous
 62
     7
370
    25
100
AcDbLine
 10
3.2777684662
 20
-0.2328309315
 30
0.0
 11
3.2956820319
 21
-0.2329875876
 31
0.0
  0
LINE
  5
1D7
330
1F
100
AcDbEntity
  8
0
  6
Continuous
 62
     7
370
    25
100
AcDbLine
 10
3.2992526757
 20
0.1753141559
 30
0.0
 11
3.28133911
 21
0.175470812
 31
0.0
  0
LINE
  5
1D8
330
1F
100
AcDbEntity
  8
0
  6
Continuous
 62
     7
370
    25
100
AcDbLine
 10
3.2063589425
 20
-0.2322064473
 30
0.0
 11
3.2242725082
 21
-0.2323631034
 31
0.0
  0
LINE
  5
1D9
330
1F
100
AcDbEntity
  8
0
  6
Continuous
 62
     7
370
    25
100
AcDbLine
 10
3.227843152
 20
0.1759386401
 30
0.0
 11
3.2099295863
 21
0.1760952962
 31
0.0
  0
LINE
  5
1DA
330
1F
100
AcDbEntity
  8
0
  6
Continuous
 62
     7
370
    25
100
AcDbLine
 10
3.1349494187
 20
-0.2315819631
 30
0.0
 11
3.1528629844
 21
-0.2317386192
 31
0.0
  0
LINE
  5
1DB
330
1F
100
AcDbEntity
  8
0
  6
Continuous
 62
     7
370
    25
100
AcDbLine
 10
3.1564336282
 20
0.1765631242
 30
0.0
 11
3.1385200625
 21
0.1767197803
 31
0.0
  0
LINE
  5
1DC
330
1F
100
AcDbEntity
  8
0
  6
Continuous
 62
     7
370
    25
100
AcDbLine
 10
3.0635398949
 20
-0.230957479
 30
0.0
 11
3.0814534606
 21
-0.2311141351
 31
0.0
  0
LINE
  5
1DD
330
1F
100
AcDbEntity
  8
0
  6
Continuous
 62
     7
370
    25
100
AcDbLine
 10
3.0850241044
 20
0.1771876084
 30
0.0
 11
3.0671105387
 21
0.1773442645
 31
0.0
  0
LINE
  5
1DE
330
1F
100
AcDbEntity
  8
0
  6
Continuous
 62
     7
370
    25
100
AcDbLine
 10
2.9921303712
 20
-0.2303329948
 30
0.0
 11
3.0100439369
 21
-0.2304896509
 31
0.0
  0
LINE
  5
1DF
330
1F
100
AcDbEntity
  8
0
  6
Continuous
 62
     7
370
    25
100
AcDbLine
 10
3.0136145807
 20
0.1778120926
 30
0.0
 11
2.995701015
 21
0.1779687487
 31
0.0
  0
LINE
  5
1E0
330
1F
100
AcDbEntity
  8
0
  6
Continuous
 62
     7
370
    25
100
AcDbLine
 10
2.9207208474
 20
-0.2297085106
 30
0.0
 11
2.9386344131
 21
-0.2298651668
 31
0.0
  0
LINE
  5
1E1
330
1F
100
AcDbEntity
  8
0
  6
Continuous
 62
     7
370
    25
100
AcDbLine
 10
2.9422050569
 20
0.1784365767
 30
0.0
 11
2.9242914912
 21
0.1785932328
 31
0.0
  0
LINE
  5
1E2
330
1F
100
AcDbEntity
  8
0
  6
Continuous
 62
     7
370
    25
100
AcDbLine
 10
2.8493113237
 20
-0.2290840265
 30
0.0
 11
2.8672248894
 21
-0.2292406826
 31
0.0
  0
LINE
  5
1E3
330
1F
100
AcDbEntity
  8
0
  6
Continuous
 62
     7
370
    25
100
AcDbLine
 10
2.8707955332
 20
0.1790610609
 30
0.0
 11
2.8528819675
 21
0.179217717
 31
0.0
  0
LINE
  5
1E4
330
1F
100
AcDbEntity
  8
0
  6
Continuous
 62
     7
370
    25
100
AcDbLine
 10
0.0220648895
 20
0.2496094898
 30
0.0
 11
0.0019045056
 21
0.2297896009
 31
0.0
  0
LINE
  5
1E5
330
1F
100
AcDbEntity
  8
0
  6
Continuous
 62
     7
370
    25
100
AcDbLine
 10
-0.0021145492
 20
-0.2297877641
 30
0.0
 11
0.0176961237
 21
-0.2499572043
 31
0.0
  0
LINE
  5
1E6
330
1F
100
AcDbEntity
  8
0
  6
Continuous
 62
     7
370
    25
100
AcDbLine
 10
2.7779017999
 20
-0.2284595423
 30
0.0
 11
2.7958153656
 21
-0.2286161984
 31
0.0
  0
LINE
  5
1E7
330
1F
100
AcDbEntity
  8
0
  6
Continuous
 62
     7
370
    25
100
AcDbLine
 10
2.7993860094
 20
0.1796855451
 30
0.0
 11
2.7814724437
 21
0.1798422012
 31
0.0
  0
LINE
  5
1E8
330
1F
100
AcDbEntity
  8
0
  6
Continuous
 62
     7
370
    25
100
AcDbLine
 10
2.7064922762
 20
-0.2278350582
 30
0.0
 11
2.7244058418
 21
-0.2279917143
 31
0.0
  0
LINE
  5
1E9
330
1F
100
AcDbEntity
  8
0
  6
Continuous
 62
     7
370
    25
100
AcDbLine
 10
2.7279764856
 20
0.1803100292
 30
0.0
 11
2.71006292
 21
0.1804666853
 31
0.0
  0
LINE
  5
1EA
330
1F
100
AcDbEntity
  8
0
  6
Continuous
 62
     7
370
    25
100
AcDbLine
 10
2.6350827524
 20
-0.227210574
 30
0.0
 11
2.6529963181
 21
-0.2273672301
 31
0.0
  0
LINE
  5
1EB
330
1F
100
AcDbEntity
  8
0
  6
Continuous
 62
     7
370
    25
100
AcDbLine
 10
2.6565669619
 20
0.1809345134
 30
0.0
 11
2.6386533962
 21
0.1810911695
 31
0.0
  0
LINE
  5
1EC
330
1F
100
AcDbEntity
  8
0
  6
Continuous
 62
     7
370
    25
100
AcDbLine
 10
2.5636732286
 20
-0.2265860898
 30
0.0
 11
2.5815867943
 21
-0.2267427459
 31
0.0
  0
LINE
  5
1ED
330
1F
100
AcDbEntity
  8
0
  6
Continuous
 62
     7
370
    25
100
AcDbLine
 10
2.5851574381
 20
0.1815589975
 30
0.0
 11
2.5672438724
 21
0.1817156537
 31
0.0
  0
LINE
  5
1EE
330
1F
100
AcDbEntity
  8
0
  6
Continuous
 62
     7
370
    25
100
AcDbLine
 10
2.4922637049
 20
-0.2259616057
 30
0.0
 11
2.5101772706
 21
-0.2261182618
 31
0.0
  0
LINE
  5
1EF
330
1F
100
AcDbEntity
  8
0
  6
Continuous
 62
     7
370
    25
100
AcDbLine
 10
2.5137479144
 20
0.1821834817
 30
0.0
 11
2.4958343487
 21
0.1823401378
 31
0.0
  0
LINE
  5
1F0
330
1F
100
AcDbEntity
  8
0
  6
Continuous
 62
     7
370
    25
100
AcDbLine
 10
2.4208541811
 20
-0.2253371215
 30
0.0
 11
2.4387677468
 21
-0.2254937776
 31
0.0
  0
LINE
  5
1F1
330
1F
100
AcDbEntity
  8
0
  6
Continuous
 62
     7
370
    25
100
AcDbLine
 10
2.4423383906
 20
0.1828079659
 30
0.0
 11
2.4244248249
 21
0.182964622
 31
0.0
  0
ARC
  5
1F2
330
1F
100
AcDbEntity
  8
0
  6
Continuous
 62
     7
370
    25
100
AcDbCircle
 10
7.0142244941
 20
-0.0484577737
 30
0.0
 40
3.525656569877011
100
AcDbArc
 50
176.3889708887
 51
180.9648604595
  0
ARC
  5
1F3
330
1F
100
AcDbEntity
  8
0
  6
Continuous
 62
     7
370
    25
100
AcDbCircle
 10
4.8266432272
 20
-0.1404189571
 30
0.0
 40
1.337972418800494
100
AcDbArc
 50
178.6041815605
 51
184.0409189586
  0
ARC
  5
1F4
330
1F
100
AcDbEntity
  8
0
  6
Continuous
 62
     7
370
    25
100
AcDbCircle
 10
7.7155075146
 20
-0.0520837394
 30
0.0
 40
4.257509763311997
100
AcDbArc
 50
176.3939643502
 51
180.9598669981
  0
ARC
  5
1F5
330
1F
100
AcDbEntity
  8
0
  6
Continuous
 62
     7
370
    25
100
AcDbCircle
 10
4.9262362492
 20
-0.166003302
 30
0.0
 40
1.468259115866583
100
AcDbArc
 50
178.337486432
 51
184.3076140871
  0
ARC
  5
1F6
330
1F
100
AcDbEntity
  8
0
  6
Continuous
 62
     7
370
    25
100
AcDbCircle
 10
7.1290110055
 20
-0.0498333618
 30
0.0
 40
3.693805484435887
100
AcDbArc
 50
176.5271179049
 51
180.8923480244
  0
ARC
  5
1F7
330
1F
100
AcDbEntity
  8
0
  6
Continuous
 62
     7
370
    25
100
AcDbCircle
 10
4.8847808664
 20
-0.139114563
 30
0.0
 40
1.449475243387541
100
AcDbArc
 50
178.7446803113
 51
183.757059138
  0
ARC
  5
1F8
330
1F
100
AcDbEntity
  8
0
  6
Continuous
 62
     7
370
    25
100
AcDbCircle
 10
6.9428149704
 20
-0.0478332895
 30
0.0
 40
3.525656569877011
100
AcDbArc
 50
176.3889708887
 51
180.9648604595
  0
ARC
  5
1F9
330
1F
100
AcDbEntity
  8
0
  6
Continuous
 62
     7
370
    25
100
AcDbCircle
 10
4.7552337035
 20
-0.1397944729
 30
0.0
 40
1.337972418800193
100
AcDbArc
 50
178.6041815605
 51
184.0409189586
  0
ARC
  5
1FA
330
1F
100
AcDbEntity
  8
0
  6
Continuous
 62
     7
370
    25
100
AcDbCircle
 10
7.6440979909
 20
-0.0514592552
 30
0.0
 40
4.257509763311921
100
AcDbArc
 50
176.3939643502
 51
180.9598669981
  0
ARC
  5
1FB
330
1F
100
AcDbEntity
  8
0
  6
Continuous
 62
     7
370
    25
100
AcDbCircle
 10
4.8548267254
 20
-0.1653788179
 30
0.0
 40
1.468259115866294
100
AcDbArc
 50
178.337486432
 51
184.3076140871
  0
ARC
  5
1FC
330
1F
100
AcDbEntity
  8
0
  6
Continuous
 62
     7
370
    25
100
AcDbCircle
 10
7.0576014817
 20
-0.0492088777
 30
0.0
 40
3.693805484436682
100
AcDbArc
 50
176.5271179049
 51
180.8923480244
  0
ARC
  5
1FD
330
1F
100
AcDbEntity
  8
0
  6
Continuous
 62
     7
370
    25
100
AcDbCircle
 10
4.8133713426
 20
-0.1384900788
 30
0.0
 40
1.44947524338754
100
AcDbArc
 50
178.7446803113
 51
183.757059138
  0
ARC
  5
1FE
330
1F
100
AcDbEntity
  8
0
  6
Continuous
 62
     7
370
    25
100
AcDbCircle
 10
6.8714054466
 20
-0.0472088054
 30
0.0
 40
3.525656569876271
100
AcDbArc
 50
176.3889708887
 51
180.9648604595
  0
ARC
  5
1FF
330
1F
100
AcDbEntity
  8
0
  6
Continuous
 62
     7
370
    25
100
AcDbCircle
 10
4.6838241797
 20
-0.1391699888
 30
0.0
 40
1.337972418800489
100
AcDbArc
 50
178.6041815605
 51
184.0409189586
  0
ARC
  5
200
330
1F
100
AcDbEntity
  8
0
  6
Continuous
 62
     7
370
    25
100
AcDbCircle
 10
7.5726884671
 20
-0.050834771
 30
0.0
 40
4.257509763312372
100
AcDbArc
 50
176.3939643502
 51
180.9598669981
  0
ARC
  5
201
330
1F
100
AcDbEntity
  8
0
  6
Continuous
 62
     7
370
    25
100
AcDbCircle
 10
4.7834172016
 20
-0.1647543337
 30
0.0
 40
1.468259115866795
100
AcDbArc
 50
178.337486432
 51
184.3076140871
  0
ARC
  5
202
330
1F
100
AcDbEntity
  8
0
  6
Continuous
 62
     7
370
    25
100
AcDbCircle
 10
6.9861919579
 20
-0.0485843935
 30
0.0
 40
3.693805484435887
100
AcDbArc
 50
176.5271179049
 51
180.8923480244
  0
ARC
  5
203
330
1F
100
AcDbEntity
  8
0
  6
Continuous
 62
     7
370
    25
100
AcDbCircle
 10
4.7419618189
 20
-0.1378655947
 30
0.0
 40
1.449475243386977
100
AcDbArc
 50
178.7446803113
 51
183.757059138
  0
ARC
  5
204
330
1F
100
AcDbEntity
  8
0
  6
Continuous
 62
     7
370
    25
100
AcDbCircle
 10
6.7999959229
 20
-0.0465843212
 30
0.0
 40
3.525656569877011
100
AcDbArc
 50
176.3889708887
 51
180.9648604595
  0
ARC
  5
205
330
1F
100
AcDbEntity
  8
0
  6
Continuous
 62
     7
370
    25
100
AcDbCircle
 10
4.6124146559
 20
-0.1385455046
 30
0.0
 40
1.337972418800492
100
AcDbArc
 50
178.6041815605
 51
184.0409189586
  0
ARC
  5
206
330
1F
100
AcDbEntity
  8
0
  6
Continuous
 62
     7
370
    25
100
AcDbCircle
 10
7.5012789433
 20
-0.0502102869
 30
0.0
 40
4.257509763311922
100
AcDbArc
 50
176.3939643502
 51
180.9598669981
  0
ARC
  5
207
330
1F
100
AcDbEntity
  8
0
  6
Continuous
 62
     7
370
    25
100
AcDbCircle
 10
4.7120076779
 20
-0.1641298495
 30
0.0
 40
1.468259115866297
100
AcDbArc
 50
178.337486432
 51
184.3076140871
  0
ARC
  5
208
330
1F
100
AcDbEntity
  8
0
  6
Continuous
 62
     7
370
    25
100
AcDbCircle
 10
6.9147824342
 20
-0.0479599093
 30
0.0
 40
3.693805484436681
100
AcDbArc
 50
176.5271179049
 51
180.8923480244
  0
ARC
  5
209
330
1F
100
AcDbEntity
  8
0
  6
Continuous
 62
     7
370
    25
100
AcDbCircle
 10
4.6705522951
 20
-0.1372411105
 30
0.0
 40
1.449475243387542
100
AcDbArc
 50
178.7446803113
 51
183.757059138
  0
ARC
  5
20A
330
1F
100
AcDbEntity
  8
0
  6
Continuous
 62
     7
370
    25
100
AcDbCircle
 10
6.7285863991
 20
-0.045959837
 30
0.0
 40
3.525656569876272
100
AcDbArc
 50
176.3889708887
 51
180.9648604595
  0
ARC
  5
20B
330
1F
100
AcDbEntity
  8
0
  6
Continuous
 62
     7
370
    25
100
AcDbCircle
 10
4.5410051322
 20
-0.1379210204
 30
0.0
 40
1.337972418800088
100
AcDbArc
 50
178.6041815605
 51
184.0409189586
  0
ARC
  5
20C
330
1F
100
AcDbEntity
  8
0
  6
Continuous
 62
     7
370
    25
100
AcDbCircle
 10
7.4298694196
 20
-0.0495858027
 30
0.0
 40
4.257509763312369
100
AcDbArc
 50
176.3939643502
 51
180.9598669981
  0
ARC
  5
20D
330
1F
100
AcDbEntity
  8
0
  6
Continuous
 62
     7
370
    25
100
AcDbCircle
 10
4.6405981541
 20
-0.1635053654
 30
0.0
 40
1.468259115866664
100
AcDbArc
 50
178.337486432
 51
184.3076140871
  0
ARC
  5
20E
330
1F
100
AcDbEntity
  8
0
  6
Continuous
 62
     7
370
    25
100
AcDbCircle
 10
6.8433729104
 20
-0.0473354252
 30
0.0
 40
3.693805484436682
100
AcDbArc
 50
176.5271179049
 51
180.8923480244
  0
ARC
  5
20F
330
1F
100
AcDbEntity
  8
0
  6
Continuous
 62
     7
370
    25
100
AcDbCircle
 10
4.5991427713
 20
-0.1366166263
 30
0.0
 40
1.449475243387542
100
AcDbArc
 50
178.7446803113
 51
183.757059138
  0
ARC
  5
210
330
1F
100
AcDbEntity
  8
0
  6
Continuous
 62
     7
370
    25
100
AcDbCircle
 10
6.6571768753
 20
-0.0453353529
 30
0.0
 40
3.525656569877011
100
AcDbArc
 50
176.3889708887
 51
180.9648604595
  0
ARC
  5
211
330
1F
100
AcDbEntity
  8
0
  6
Continuous
 62
     7
370
    25
100
AcDbCircle
 10
4.4695956084
 20
-0.1372965363
 30
0.0
 40
1.337972418800494
100
AcDbArc
 50
178.6041815605
 51
184.0409189586
  0
ARC
  5
212
330
1F
100
AcDbEntity
  8
0
  6
Continuous
 62
     7
370
    25
100
AcDbCircle
 10
7.3584598958
 20
-0.0489613186
 30
0.0
 40
4.257509763311993
100
AcDbArc
 50
176.3939643502
 51
180.9598669981
  0
ARC
  5
213
330
1F
100
AcDbEntity
  8
0
  6
Continuous
 62
     7
370
    25
100
AcDbCircle
 10
4.5691886304
 20
-0.1628808812
 30
0.0
 40
1.468259115866587
100
AcDbArc
 50
178.337486432
 51
184.3076140871
  0
ARC
  5
214
330
1F
100
AcDbEntity
  8
0
  6
Continuous
 62
     7
370
    25
100
AcDbCircle
 10
6.7719633867
 20
-0.046710941
 30
0.0
 40
3.693805484436404
100
AcDbArc
 50
176.5271179049
 51
180.8923480244
  0
ARC
  5
215
330
1F
100
AcDbEntity
  8
0
  6
Continuous
 62
     7
370
    25
100
AcDbCircle
 10
4.5277332476
 20
-0.1359921422
 30
0.0
 40
1.449475243386802
100
AcDbArc
 50
178.7446803113
 51
183.757059138
  0
ARC
  5
216
330
1F
100
AcDbEntity
  8
0
  6
Continuous
 62
     7
370
    25
100
AcDbCircle
 10
6.5857673516
 20
-0.0447108687
 30
0.0
 40
3.52565656987701
100
AcDbArc
 50
176.3889708887
 51
180.9648604595
  0
ARC
  5
217
330
1F
100
AcDbEntity
  8
0
  6
Continuous
 62
     7
370
    25
100
AcDbCircle
 10
4.3981860847
 20
-0.1366720521
 30
0.0
 40
1.337972418800192
100
AcDbArc
 50
178.6041815605
 51
184.0409189586
  0
ARC
  5
218
330
1F
100
AcDbEntity
  8
0
  6
Continuous
 62
     7
370
    25
100
AcDbCircle
 10
7.2870503721
 20
-0.0483368344
 30
0.0
 40
4.257509763311536
100
AcDbArc
 50
176.3939643502
 51
180.9598669981
  0
ARC
  5
219
330
1F
100
AcDbEntity
  8
0
  6
Continuous
 62
     7
370
    25
100
AcDbCircle
 10
4.4977791066
 20
-0.162256397
 30
0.0
 40
1.468259115866298
100
AcDbArc
 50
178.337486432
 51
184.3076140871
  0
ARC
  5
21A
330
1F
100
AcDbEntity
  8
0
  6
Continuous
 62
     7
370
    25
100
AcDbCircle
 10
6.7005538629
 20
-0.0460864568
 30
0.0
 40
3.693805484435889
100
AcDbArc
 50
176.5271179049
 51
180.8923480244
  0
ARC
  5
21B
330
1F
100
AcDbEntity
  8
0
  6
Continuous
 62
     7
370
    25
100
AcDbCircle
 10
4.4563237238
 20
-0.135367658
 30
0.0
 40
1.44947524338754
100
AcDbArc
 50
178.7446803113
 51
183.757059138
  0
ARC
  5
21C
330
1F
100
AcDbEntity
  8
0
  6
Continuous
 62
     7
370
    25
100
AcDbCircle
 10
6.5143578278
 20
-0.0440863845
 30
0.0
 40
3.525656569876273
100
AcDbArc
 50
176.3889708887
 51
180.9648604595
  0
ARC
  5
21D
330
1F
100
AcDbEntity
  8
0
  6
Continuous
 62
     7
370
    25
100
AcDbCircle
 10
4.3267765609
 20
-0.1360475679
 30
0.0
 40
1.337972418799862
100
AcDbArc
 50
178.6041815605
 51
184.0409189586
  0
ARC
  5
21E
330
1F
100
AcDbEntity
  8
0
  6
Continuous
 62
     7
370
    25
100
AcDbCircle
 10
7.2156408483
 20
-0.0477123502
 30
0.0
 40
4.25750976331192
100
AcDbArc
 50
176.3939643502
 51
180.9598669981
  0
ARC
  5
21F
330
1F
100
AcDbEntity
  8
0
  6
Continuous
 62
     7
370
    25
100
AcDbCircle
 10
4.4263695828
 20
-0.1616319129
 30
0.0
 40
1.468259115866668
100
AcDbArc
 50
178.337486432
 51
184.3076140871
  0
ARC
  5
220
330
1F
100
AcDbEntity
  8
0
  6
Continuous
 62
     7
370
    25
100
AcDbCircle
 10
6.6291443391
 20
-0.0454619727
 30
0.0
 40
3.693805484436682
100
AcDbArc
 50
176.5271179049
 51
180.8923480244
  0
ARC
  5
221
330
1F
100
AcDbEntity
  8
0
  6
Continuous
 62
     7
370
    25
100
AcDbCircle
 10
4.3849142001
 20
-0.1347431739
 30
0.0
 40
1.44947524338754
100
AcDbArc
 50
178.7446803113
 51
183.757059138
  0
ARC
  5
222
330
1F
100
AcDbEntity
  8
0
  6
Continuous
 62
     7
370
    25
100
AcDbCircle
 10
6.4429483041
 20
-0.0434619004
 30
0.0
 40
3.525656569876276
100
AcDbArc
 50
176.3889708887
 51
180.9648604595
  0
ARC
  5
223
330
1F
100
AcDbEntity
  8
0
  6
Continuous
 62
     7
370
    25
100
AcDbCircle
 10
4.2553670372
 20
-0.1354230838
 30
0.0
 40
1.337972418800492
100
AcDbArc
 50
178.6041815605
 51
184.0409189586
  0
ARC
  5
224
330
1F
100
AcDbEntity
  8
0
  6
Continuous
 62
     7
370
    25
100
AcDbCircle
 10
7.1442313246
 20
-0.0470878661
 30
0.0
 40
4.25750976331237
100
AcDbArc
 50
176.3939643502
 51
180.9598669981
  0
ARC
  5
225
330
1F
100
AcDbEntity
  8
0
  6
Continuous
 62
     7
370
    25
100
AcDbCircle
 10
4.3549600591
 20
-0.1610074287
 30
0.0
 40
1.468259115866797
100
AcDbArc
 50
178.337486432
 51
184.3076140871
  0
ARC
  5
226
330
1F
100
AcDbEntity
  8
0
  6
Continuous
 62
     7
370
    25
100
AcDbCircle
 10
6.5577348154
 20
-0.0448374885
 30
0.0
 40
3.693805484435889
100
AcDbArc
 50
176.5271179049
 51
180.8923480244
  0
ARC
  5
227
330
1F
100
AcDbEntity
  8
0
  6
Continuous
 62
     7
370
    25
100
AcDbCircle
 10
4.3135046763
 20
-0.1341186897
 30
0.0
 40
1.449475243386805
100
AcDbArc
 50
178.7446803113
 51
183.757059138
  0
ARC
  5
228
330
1F
100
AcDbEntity
  8
0
  6
Continuous
 62
     7
370
    25
100
AcDbCircle
 10
6.3715387803
 20
-0.0428374162
 30
0.0
 40
3.525656569877009
100
AcDbArc
 50
176.3889708887
 51
180.9648604595
  0
ARC
  5
229
330
1F
100
AcDbEntity
  8
0
  6
Continuous
 62
     7
370
    25
100
AcDbCircle
 10
4.1839575134
 20
-0.1347985996
 30
0.0
 40
1.337972418800192
100
AcDbArc
 50
178.6041815605
 51
184.0409189586
  0
ARC
  5
22A
330
1F
100
AcDbEntity
  8
0
  6
Continuous
 62
     7
370
    25
100
AcDbCircle
 10
7.0728218008
 20
-0.0464633819
 30
0.0
 40
4.257509763311769
100
AcDbArc
 50
176.3939643502
 51
180.9598669981
  0
ARC
  5
22B
330
1F
100
AcDbEntity
  8
0
  6
Continuous
 62
     7
370
    25
100
AcDbCircle
 10
4.2835505353
 20
-0.1603829445
 30
0.0
 40
1.468259115866296
100
AcDbArc
 50
178.337486432
 51
184.3076140871
  0
ARC
  5
22C
330
1F
100
AcDbEntity
  8
0
  6
Continuous
 62
     7
370
    25
100
AcDbCircle
 10
6.4863252916
 20
-0.0442130044
 30
0.0
 40
3.693805484436684
100
AcDbArc
 50
176.5271179049
 51
180.8923480244
  0
ARC
  5
22D
330
1F
100
AcDbEntity
  8
0
  6
Continuous
 62
     7
370
    25
100
AcDbCircle
 10
4.2420951526
 20
-0.1334942055
 30
0.0
 40
1.44947524338754
100
AcDbArc
 50
178.7446803113
 51
183.757059138
  0
ARC
  5
22E
330
1F
100
AcDbEntity
  8
0
  6
Continuous
 62
     7
370
    25
100
AcDbCircle
 10
6.3001292565
 20
-0.042212932
 30
0.0
 40
3.525656569876272
100
AcDbArc
 50
176.3889708887
 51
180.9648604595
  0
ARC
  5
22F
330
1F
100
AcDbEntity
  8
0
  6
Continuous
 62
     7
370
    25
100
AcDbCircle
 10
4.1125479896
 20
-0.1341741154
 30
0.0
 40
1.33797241880001
100
AcDbArc
 50
178.6041815605
 51
184.0409189586
  0
ARC
  5
230
330
1F
100
AcDbEntity
  8
0
  6
Continuous
 62
     7
370
    25
100
AcDbCircle
 10
7.001412277
 20
-0.0458388977
 30
0.0
 40
4.257509763312371
100
AcDbArc
 50
176.3939643502
 51
180.9598669981
  0
ARC
  5
231
330
1F
100
AcDbEntity
  8
0
  6
Continuous
 62
     7
370
    25
100
AcDbCircle
 10
4.2121410116
 20
-0.1597584604
 30
0.0
 40
1.468259115866665
100
AcDbArc
 50
178.337486432
 51
184.3076140871
  0
ARC
  5
232
330
1F
100
AcDbEntity
  8
0
  6
Continuous
 62
     7
370
    25
100
AcDbCircle
 10
6.4149157679
 20
-0.0435885202
 30
0.0
 40
3.693805484436681
100
AcDbArc
 50
176.5271179049
 51
180.8923480244
  0
ARC
  5
233
330
1F
100
AcDbEntity
  8
0
  6
Continuous
 62
     7
370
    25
100
AcDbCircle
 10
4.1706856288
 20
-0.1328697214
 30
0.0
 40
1.449475243387182
100
AcDbArc
 50
178.7446803113
 51
183.757059138
  0
ARC
  5
234
330
1F
100
AcDbEntity
  8
0
  6
Continuous
 62
     7
370
    25
100
AcDbCircle
 10
6.2287197328
 20
-0.0415884479
 30
0.0
 40
3.525656569877007
100
AcDbArc
 50
176.3889708887
 51
180.9648604595
  0
ARC
  5
235
330
1F
100
AcDbEntity
  8
0
  6
Continuous
 62
     7
370
    25
100
AcDbCircle
 10
4.0411384659
 20
-0.1335496313
 30
0.0
 40
1.337972418800492
100
AcDbArc
 50
178.6041815605
 51
184.0409189586
  0
ARC
  5
236
330
1F
100
AcDbEntity
  8
0
  6
Continuous
 62
     7
370
    25
100
AcDbCircle
 10
6.9300027533
 20
-0.0452144136
 30
0.0
 40
4.257509763311996
100
AcDbArc
 50
176.3939643502
 51
180.9598669981
  0
ARC
  5
237
330
1F
100
AcDbEntity
  8
0
  6
Continuous
 62
     7
370
    25
100
AcDbCircle
 10
4.1407314878
 20
-0.1591339762
 30
0.0
 40
1.468259115866586
100
AcDbArc
 50
178.337486432
 51
184.3076140871
  0
ARC
  5
238
330
1F
100
AcDbEntity
  8
0
  6
Continuous
 62
     7
370
    25
100
AcDbCircle
 10
6.3435062441
 20
-0.042964036
 30
0.0
 40
3.693805484435888
100
AcDbArc
 50
176.5271179049
 51
180.8923480244
  0
ARC
  5
239
330
1F
100
AcDbEntity
  8
0
  6
Continuous
 62
     7
370
    25
100
AcDbCircle
 10
4.099276105
 20
-0.1322452372
 30
0.0
 40
1.449475243387086
100
AcDbArc
 50
178.7446803113
 51
183.757059138
  0
ARC
  5
23A
330
1F
100
AcDbEntity
  8
0
  6
Continuous
 62
     7
370
    25
100
AcDbCircle
 10
5.9430816378
 20
-0.0390905112
 30
0.0
 40
3.525656569876246
100
AcDbArc
 50
176.3889708887
 51
180.9648604595
  0
ARC
  5
23B
330
1F
100
AcDbEntity
  8
0
  6
Continuous
 62
     7
370
    25
100
AcDbCircle
 10
3.7555003708
 20
-0.1310516946
 30
0.0
 40
1.337972418800676
100
AcDbArc
 50
178.6041815605
 51
184.0409189586
  0
ARC
  5
23C
330
1F
100
AcDbEntity
  8
0
  6
Continuous
 62
     7
370
    25
100
AcDbCircle
 10
6.157310209
 20
-0.0409639637
 30
0.0
 40
3.525656569877012
100
AcDbArc
 50
176.3889708887
 51
180.9648604595
  0
ARC
  5
23D
330
1F
100
AcDbEntity
  8
0
  6
Continuous
 62
     7
370
    25
100
AcDbCircle
 10
3.9697289421
 20
-0.1329251471
 30
0.0
 40
1.337972418800194
100
AcDbArc
 50
178.6041815605
 51
184.0409189586
  0
ARC
  5
23E
330
1F
100
AcDbEntity
  8
0
  6
Continuous
 62
     7
370
    25
100
AcDbCircle
 10
4.5426908946
 20
-0.0397263331
 30
0.0
 40
4.529764951130214
100
AcDbArc
 50
176.3370647148
 51
182.6608450032
  0
ARC
  5
23F
330
1F
100
AcDbEntity
  8
0
  6
Continuous
 62
     7
370
    25
100
AcDbCircle
 10
6.8585932295
 20
-0.0445899294
 30
0.0
 40
4.257509763311922
100
AcDbArc
 50
176.3939643502
 51
180.9598669981
  0
ARC
  5
240
330
1F
100
AcDbEntity
  8
0
  6
Continuous
 62
     7
370
    25
100
AcDbCircle
 10
4.0693219641
 20
-0.1585094921
 30
0.0
 40
1.468259115866297
100
AcDbArc
 50
178.337486432
 51
184.3076140871
  0
ARC
  5
241
330
1F
100
AcDbEntity
  8
0
  6
Continuous
 62
     7
370
    25
100
AcDbCircle
 10
6.2720967204
 20
-0.0423395519
 30
0.0
 40
3.693805484436683
100
AcDbArc
 50
176.5271179049
 51
180.8923480244
  0
ARC
  5
242
330
1F
100
AcDbEntity
  8
0
  6
Continuous
 62
     7
370
    25
100
AcDbCircle
 10
4.0278665813
 20
-0.131620753
 30
0.0
 40
1.449475243387542
100
AcDbArc
 50
178.7446803113
 51
183.757059138
  0
ARC
  5
243
330
1F
100
AcDbEntity
  8
0
  6
Continuous
 62
     7
370
    25
100
AcDbCircle
 10
6.0859006853
 20
-0.0403394796
 30
0.0
 40
3.525656569876274
100
AcDbArc
 50
176.3889708887
 51
180.9648604595
  0
ARC
  5
244
330
1F
100
AcDbEntity
  8
0
  6
Continuous
 62
     7
370
    25
100
AcDbCircle
 10
3.8983194184
 20
-0.132300663
 30
0.0
 40
1.337972418800493
100
AcDbArc
 50
178.6041815605
 51
184.0409189586
  0
ARC
  5
245
330
1F
100
AcDbEntity
  8
0
  6
Continuous
 62
     7
370
    25
100
AcDbCircle
 10
6.7871837058
 20
-0.0439654452
 30
0.0
 40
4.25750976331237
100
AcDbArc
 50
176.3939643502
 51
180.9598669981
  0
ARC
  5
246
330
1F
100
AcDbEntity
  8
0
  6
Continuous
 62
     7
370
    25
100
AcDbCircle
 10
3.9979124403
 20
-0.1578850079
 30
0.0
 40
1.468259115866665
100
AcDbArc
 50
178.337486432
 51
184.3076140871
  0
ARC
  5
247
330
1F
100
AcDbEntity
  8
0
  6
Continuous
 62
     7
370
    25
100
AcDbCircle
 10
6.2006871966
 20
-0.0417150677
 30
0.0
 40
3.693805484436223
100
AcDbArc
 50
176.5271179049
 51
180.8923480244
  0
ARC
  5
248
330
1F
100
AcDbEntity
  8
0
  6
Continuous
 62
     7
370
    25
100
AcDbCircle
 10
3.9564570575
 20
-0.1309962689
 30
0.0
 40
1.449475243386805
100
AcDbArc
 50
178.7446803113
 51
183.757059138
  0
ARC
  5
249
330
1F
100
AcDbEntity
  8
0
  6
Continuous
 62
     7
370
    25
100
AcDbCircle
 10
6.0144911615
 20
-0.0397149954
 30
0.0
 40
3.525656569877009
100
AcDbArc
 50
176.3889708887
 51
180.9648604595
  0
ARC
  5
24A
330
1F
100
AcDbEntity
  8
0
  6
Continuous
 62
     7
370
    25
100
AcDbCircle
 10
3.8269098946
 20
-0.1316761788
 30
0.0
 40
1.337972418800191
100
AcDbArc
 50
178.6041815605
 51
184.0409189586
  0
ARC
  5
24B
330
1F
100
AcDbEntity
  8
0
  6
Continuous
 62
     7
370
    25
100
AcDbCircle
 10
6.715774182
 20
-0.0433409611
 30
0.0
 40
4.25750976331237
100
AcDbArc
 50
176.3939643502
 51
180.9598669981
  0
ARC
  5
24C
330
1F
100
AcDbEntity
  8
0
  6
Continuous
 62
     7
370
    25
100
AcDbCircle
 10
3.9265029165
 20
-0.1572605237
 30
0.0
 40
1.468259115866663
100
AcDbArc
 50
178.337486432
 51
184.3076140871
  0
ARC
  5
24D
330
1F
100
AcDbEntity
  8
0
  6
Continuous
 62
     7
370
    25
100
AcDbCircle
 10
6.1292776728
 20
-0.0410905835
 30
0.0
 40
3.69380548443635
100
AcDbArc
 50
176.5271179049
 51
180.8923480244
  0
ARC
  5
24E
330
1F
100
AcDbEntity
  8
0
  6
Continuous
 62
     7
370
    25
100
AcDbCircle
 10
3.8850475338
 20
-0.1303717847
 30
0.0
 40
1.449475243387745
100
AcDbArc
 50
178.7446803113
 51
183.757059138
  0
ARC
  5
24F
330
1F
100
AcDbEntity
  8
0
  6
Continuous
 62
     7
370
    25
100
AcDbCircle
 10
4.3017986227
 20
-0.0376197036
 30
0.0
 40
4.308201150641453
100
AcDbArc
 50
176.4413732878
 51
182.5565364301
  0
ENDSEC
  0
SECTION
  2
OBJECTS
  0
DICTIONARY
  5
C
330
0
100
AcDbDictionary
281
     1
  3
ACAD_GROUP
350
D
  3
ACAD_LAYOUT
350
1A
  3
ACAD_MLINESTYLE
350
17
  3
ACAD_PLOTSETTINGS
350
19
  3
ACAD_PLOTSTYLENAME
350
E
  3
ACAD_SCALELIST
350
47
  3
DWGPROPS
350
250
  0
DICTIONARY
  5
D
102
{ACAD_REACTORS
330
C
102
}
330
C
100
AcDbDictionary
281
     1
  0
DICTIONARY
  5
1A
102
{ACAD_REACTORS
330
C
102
}
330
C
100
AcDbDictionary
281
     1
  3
Layout1
350
1E
  3
Layout2
350
26
  3
Model
350
22
  0
DICTIONARY
  5
17
102
{ACAD_REACTORS
330
C
102
}
330
C
100
AcDbDictionary
281
     1
  3
Standard
350
18
  0
DICTIONARY
  5
19
102
{ACAD_REACTORS
330
C
102
}
330
C
100
AcDbDictionary
281
     1
  0
ACDBDICTIONARYWDFLT
  5
E
102
{ACAD_REACTORS
330
C
102
}
330
C
100
AcDbDictionary
281
     1
  3
Normal
350
F
100
AcDbDictionaryWithDefault
340
F
  0
DICTIONARY
  5
47
102
{ACAD_REACTORS
330
C
102
}
330
C
100
AcDbDictionary
281
     1
  3
A0
350
48
  3
A1
350
49
  3
A2
350
4A
  3
A3
350
4B
  3
A4
350
4C
  3
A5
350
4D
  3
A6
350
4E
  3
A7
350
4F
  3
A8
350
50
  3
A9
350
51
  3
B0
350
52
  3
B1
350
53
  3
B2
350
54
  3
B3
350
55
  3
B4
350
56
  3
B5
350
57
  3
B6
350
58
  3
B7
350
59
  3
B8
350
5A
  3
B9
350
5B
  3
C0
350
5C
  3
C1
350
5D
  3
C2
350
5E
  3
C3
350
5F
  3
C4
350
60
  3
C5
350
61
  3
C6
350
62
  3
C7
350
63
  3
C8
350
64
  3
C9
350
65
  3
D0
350
66
  3
D1
350
67
  3
D2
350
68
  0
XRECORD
  5
250
102
{ACAD_REACTORS
330
C
102
}
330
C
100
AcDbXrecord
280
     1
  1
DWGPROPS COOKIE
  2

  3

  4

  6

  7

  8
schristopher
  9

300
=
301
=
302
=
303
=
304
=
305
=
306
=
307
=
308
=
309
=
 40
0.0
 41
2459467.821082651
 42
2459467.821108009
  1

 90
        0
  0
LAYOUT
  5
1E
102
{ACAD_REACTORS
330
1A
102
}
330
1A
100
AcDbPlotSettings
  1

  2
none_device
  4

  6

 40
0.0
 41
0.0
 42
0.0
 43
0.0
 44
0.0
 45
0.0
 46
0.0
 47
0.0
 48
0.0
 49
0.0
140
0.0
141
0.0
142
1.0
143
1.0
 70
   688
 72
     0
 73
     0
 74
     5
  7

 75
    16
147
1.0
148
0.0
149
0.0
100
AcDbLayout
  1
Layout1
 70
     1
 71
     1
 10
0.0
 20
0.0
 11
12.0
 21
9.0
 12
0.0
 22
0.0
 32
0.0
 14
1.0000000000E+20
 24
1.0000000000E+20
 34
1.0000000000E+20
 15
-1.0000000000E+20
 25
-1.0000000000E+20
 35
-1.0000000000E+20
146
0.0
 13
0.0
 23
0.0
 33
0.0
 16
1.0
 26
0.0
 36
0.0
 17
0.0
 27
1.0
 37
0.0
 76
     0
330
1B
  0
LAYOUT
  5
26
102
{ACAD_REACTORS
330
1A
102
}
330
1A
100
AcDbPlotSettings
  1

  2
none_device
  4

  6

 40
0.0
 41
0.0
 42
0.0
 43
0.0
 44
0.0
 45
0.0
 46
0.0
 47
0.0
 48
0.0
 49
0.0
140
0.0
141
0.0
142
1.0
143
1.0
 70
   688
 72
     0
 73
     0
 74
     5
  7

 75
    16
147
1.0
148
0.0
149
0.0
100
AcDbLayout
  1
Layout2
 70
     1
 71
     2
 10
0.0
 20
0.0
 11
0.0
 21
0.0
 12
0.0
 22
0.0
 32
0.0
 14
0.0
 24
0.0
 34
0.0
 15
0.0
 25
0.0
 35
0.0
146
0.0
 13
0.0
 23
0.0
 33
0.0
 16
1.0
 26
0.0
 36
0.0
 17
0.0
 27
1.0
 37
0.0
 76
     0
330
23
  0
LAYOUT
  5
22
102
{ACAD_REACTORS
330
1A
102
}
330
1A
100
AcDbPlotSettings
  1

  2
none_device
  4
ANSI_A_(11.00_x_8.50_Inches)
  6

 40
6.35
 41
19.05
 42
6.35000508
 43
19.05000254
 44
279.4
 45
215.9
 46
-4.448475885
 47
89.9507900992
 48
0.0
 49
0.0
140
0.0
141
0.0
142
3.1024080383
143
1.0
 70
  1696
 72
     0
 73
     0
 74
     0
  7

 75
     0
147
0.5913241897
148
-39.4088153714
149
0.0
100
AcDbLayout
  1
Model
 70
     1
 71
     0
 10
0.0
 20
0.0
 11
12.0
 21
9.0
 12
0.0
 22
0.0
 32
0.0
 14
-0.0064025279
 24
-0.2763350288
 34
0.0
 15
3.5037740399
 25
0.2496655911
 35
0.0
146
0.0
 13
0.0
 23
0.0
 33
0.0
 16
1.0
 26
0.0
 36
0.0
 17
0.0
 27
1.0
 37
0.0
 76
     0
330
1F
331
29
  0
MLINESTYLE
  5
18
102
{ACAD_REACTORS
330
17
102
}
330
17
100
AcDbMlineStyle
  2
Standard
 70
     0
  3

 62
   256
 51
90.0
 52
90.0
 71
     2
 49
0.5
 62
   256
  6
BYLAYER
 49
-0.5
 62
   256
  6
BYLAYER
  0
ACDBPLACEHOLDER
  5
F
102
{ACAD_REACTORS
330
E
102
}
330
E
  0
SCALE
  5
48
102
{ACAD_REACTORS
330
47
102
}
330
47
100
AcDbScale
 70
     0
300
1:1
140
1.0
141
1.0
290
     1
  0
SCALE
  5
49
102
{ACAD_REACTORS
330
47
102
}
330
47
100
AcDbScale
 70
     0
300
1:2
140
1.0
141
2.0
290
     0
  0
SCALE
  5
4A
102
{ACAD_REACTORS
330
47
102
}
330
47
100
AcDbScale
 70
     0
300
1:4
140
1.0
141
4.0
290
     0
  0
SCALE
  5
4B
102
{ACAD_REACTORS
330
47
102
}
330
47
100
AcDbScale
 70
     0
300
1:5
140
1.0
141
5.0
290
     0
  0
SCALE
  5
4C
102
{ACAD_REACTORS
330
47
102
}
330
47
100
AcDbScale
 70
     0
300
1:8
140
1.0
141
8.0
290
     0
  0
SCALE
  5
4D
102
{ACAD_REACTORS
330
47
102
}
330
47
100
AcDbScale
 70
     0
300
1:10
140
1.0
141
10.0
290
     0
  0
SCALE
  5
4E
102
{ACAD_REACTORS
330
47
102
}
330
47
100
AcDbScale
 70
     0
300
1:16
140
1.0
141
16.0
290
     0
  0
SCALE
  5
4F
102
{ACAD_REACTORS
330
47
102
}
330
47
100
AcDbScale
 70
     0
300
1:20
140
1.0
141
20.0
290
     0
  0
SCALE
  5
50
102
{ACAD_REACTORS
330
47
102
}
330
47
100
AcDbScale
 70
     0
300
1:30
140
1.0
141
30.0
290
     0
  0
SCALE
  5
51
102
{ACAD_REACTORS
330
47
102
}
330
47
100
AcDbScale
 70
     0
300
1:40
140
1.0
141
40.0
290
     0
  0
SCALE
  5
52
102
{ACAD_REACTORS
330
47
102
}
330
47
100
AcDbScale
 70
     0
300
1:50
140
1.0
141
50.0
290
     0
  0
SCALE
  5
53
102
{ACAD_REACTORS
330
47
102
}
330
47
100
AcDbScale
 70
     0
300
1:100
140
1.0
141
100.0
290
     0
  0
SCALE
  5
54
102
{ACAD_REACTORS
330
47
102
}
330
47
100
AcDbScale
 70
     0
300
2:1
140
2.0
141
1.0
290
     0
  0
SCALE
  5
55
102
{ACAD_REACTORS
330
47
102
}
330
47
100
AcDbScale
 70
     0
300
4:1
140
4.0
141
1.0
290
     0
  0
SCALE
  5
56
102
{ACAD_REACTORS
330
47
102
}
330
47
100
AcDbScale
 70
     0
300
8:1
140
8.0
141
1.0
290
     0
  0
SCALE
  5
57
102
{ACAD_REACTORS
330
47
102
}
330
47
100
AcDbScale
 70
     0
300
10:1
140
10.0
141
1.0
290
     0
  0
SCALE
  5
58
102
{ACAD_REACTORS
330
47
102
}
330
47
100
AcDbScale
 70
     0
300
100:1
140
100.0
141
1.0
290
     0
  0
SCALE
  5
59
102
{ACAD_REACTORS
330
47
102
}
330
47
100
AcDbScale
 70
     0
300
1/128" = 1'-0"
140
0.0078125
141
12.0
290
     0
  0
SCALE
  5
5A
102
{ACAD_REACTORS
330
47
102
}
330
47
100
AcDbScale
 70
     0
300
1/64" = 1'-0"
140
0.015625
141
12.0
290
     0
  0
SCALE
  5
5B
102
{ACAD_REACTORS
330
47
102
}
330
47
100
AcDbScale
 70
     0
300
1/32" = 1'-0"
140
0.03125
141
12.0
290
     0
  0
SCALE
  5
5C
102
{ACAD_REACTORS
330
47
102
}
330
47
100
AcDbScale
 70
     0
300
1/16" = 1'-0"
140
0.0625
141
12.0
290
     0
  0
SCALE
  5
5D
102
{ACAD_REACTORS
330
47
102
}
330
47
100
AcDbScale
 70
     0
300
3/32" = 1'-0"
140
0.09375
141
12.0
290
     0
  0
SCALE
  5
5E
102
{ACAD_REACTORS
330
47
102
}
330
47
100
AcDbScale
 70
     0
300
1/8" = 1'-0"
140
0.125
141
12.0
290
     0
  0
SCALE
  5
5F
102
{ACAD_REACTORS
330
47
102
}
330
47
100
AcDbScale
 70
     0
300
3/16" = 1'-0"
140
0.1875
141
12.0
290
     0
  0
SCALE
  5
60
102
{ACAD_REACTORS
330
47
102
}
330
47
100
AcDbScale
 70
     0
300
1/4" = 1'-0"
140
0.25
141
12.0
290
     0
  0
SCALE
  5
61
102
{ACAD_REACTORS
330
47
102
}
330
47
100
AcDbScale
 70
     0
300
3/8" = 1'-0"
140
0.375
141
12.0
290
     0
  0
SCALE
  5
62
102
{ACAD_REACTORS
330
47
102
}
330
47
100
AcDbScale
 70
     0
300
1/2" = 1'-0"
140
0.5
141
12.0
290
     0
  0
SCALE
  5
63
102
{ACAD_REACTORS
330
47
102
}
330
47
100
AcDbScale
 70
     0
300
3/4" = 1'-0"
140
0.75
141
12.0
290
     0
  0
SCALE
  5
64
102
{ACAD_REACTORS
330
47
102
}
330
47
100
AcDbScale
 70
     0
300
1" = 1'-0"
140
1.0
141
12.0
290
     0
  0
SCALE
  5
65
102
{ACAD_REACTORS
330
47
102
}
330
47
100
AcDbScale
 70
     0
300
1-1/2" = 1'-0"
140
1.5
141
12.0
290
     0
  0
SCALE
  5
66
102
{ACAD_REACTORS
330
47
102
}
330
47
100
AcDbScale
 70
     0
300
3" = 1'-0"
140
3.0
141
12.0
290
     0
  0
SCALE
  5
67
102
{ACAD_REACTORS
330
47
102
}
330
47
100
AcDbScale
 70
     0
300
6" = 1'-0"
140
6.0
141
12.0
290
     0
  0
SCALE
  5
68
102
{ACAD_REACTORS
330
47
102
}
330
47
100
AcDbScale
 70
     0
300
1'-0" = 1'-0"
140
12.0
141
12.0
290
     0
  0
ENDSEC
  0
EOF
